  0
SECTION
  2
HEADER
  9
$ACADVER
  1
AC1032
  9
$ACADMAINTVER
 90
      251
  9
$DWGCODEPAGE
  3
ANSI_1252
  9
$REQUIREDVERSIONS
160
                 0
  9
$INSBASE
 10
0.0
 20
0.0
 30
0.0
  9
$EXTMIN
 10
1.000000000000000E+20
 20
1.000000000000000E+20
 30
1.000000000000000E+20
  9
$EXTMAX
 10
-1.000000000000000E+20
 20
-1.000000000000000E+20
 30
-1.000000000000000E+20
  9
$LIMMIN
 10
0.0
 20
0.0
  9
$LIMMAX
 10
12.0
 20
9.0
  9
$ORTHOMODE
 70
     0
  9
$REGENMODE
 70
     1
  9
$FILLMODE
 70
     1
  9
$QTEXTMODE
 70
     0
  9
$MIRRTEXT
 70
     0
  9
$LTSCALE
 40
1.0
  9
$ATTMODE
 70
     1
  9
$TEXTSIZE
 40
0.2
  9
$TRACEWID
 40
0.05
  9
$TEXTSTYLE
  7
Standard
  9
$CLAYER
  8
0
  9
$CELTYPE
  6
ByLayer
  9
$CECOLOR
 62
   256
  9
$CELTSCALE
 40
1.0
  9
$DISPSILH
 70
     0
  9
$DIMSCALE
 40
1.0
  9
$DIMASZ
 40
0.18
  9
$DIMEXO
 40
0.0625
  9
$DIMDLI
 40
0.38
  9
$DIMRND
 40
0.0
  9
$DIMDLE
 40
0.0
  9
$DIMEXE
 40
0.18
  9
$DIMTP
 40
0.0
  9
$DIMTM
 40
0.0
  9
$DIMTXT
 40
0.18
  9
$DIMCEN
 40
0.09
  9
$DIMTSZ
 40
0.0
  9
$DIMTOL
 70
     0
  9
$DIMLIM
 70
     0
  9
$DIMTIH
 70
     1
  9
$DIMTOH
 70
     1
  9
$DIMSE1
 70
     0
  9
$DIMSE2
 70
     0
  9
$DIMTAD
 70
     0
  9
$DIMZIN
 70
     0
  9
$DIMBLK
  1

  9
$DIMASO
 70
     1
  9
$DIMSHO
 70
     1
  9
$DIMPOST
  1

  9
$DIMAPOST
  1

  9
$DIMALT
 70
     0
  9
$DIMALTD
 70
     2
  9
$DIMALTF
 40
25.4
  9
$DIMLFAC
 40
1.0
  9
$DIMTOFL
 70
     0
  9
$DIMTVP
 40
0.0
  9
$DIMTIX
 70
     0
  9
$DIMSOXD
 70
     0
  9
$DIMSAH
 70
     0
  9
$DIMBLK1
  1

  9
$DIMBLK2
  1

  9
$DIMSTYLE
  2
Standard
  9
$DIMCLRD
 70
     0
  9
$DIMCLRE
 70
     0
  9
$DIMCLRT
 70
     0
  9
$DIMTFAC
 40
1.0
  9
$DIMGAP
 40
0.09
  9
$DIMJUST
 70
     0
  9
$DIMSD1
 70
     0
  9
$DIMSD2
 70
     0
  9
$DIMTOLJ
 70
     1
  9
$DIMTZIN
 70
     0
  9
$DIMALTZ
 70
     0
  9
$DIMALTTZ
 70
     0
  9
$DIMUPT
 70
     0
  9
$DIMDEC
 70
     4
  9
$DIMTDEC
 70
     4
  9
$DIMALTU
 70
     2
  9
$DIMALTTD
 70
     2
  9
$DIMTXSTY
  7
Standard
  9
$DIMAUNIT
 70
     0
  9
$DIMADEC
 70
     0
  9
$DIMALTRND
 40
0.0
  9
$DIMAZIN
 70
     0
  9
$DIMDSEP
 70
    46
  9
$DIMATFIT
 70
     3
  9
$DIMFRAC
 70
     0
  9
$DIMLDRBLK
  1

  9
$DIMLUNIT
 70
     2
  9
$DIMLWD
 70
    -2
  9
$DIMLWE
 70
    -2
  9
$DIMTMOVE
 70
     0
  9
$DIMFXL
 40
1.0
  9
$DIMFXLON
 70
     0
  9
$DIMJOGANG
 40
0.7853981633974483
  9
$DIMTFILL
 70
     0
  9
$DIMTFILLCLR
 70
     0
  9
$DIMARCSYM
 70
     0
  9
$DIMLTYPE
  6

  9
$DIMLTEX1
  6

  9
$DIMLTEX2
  6

  9
$DIMTXTDIRECTION
 70
     0
  9
$LUNITS
 70
     2
  9
$LUPREC
 70
     4
  9
$SKETCHINC
 40
0.1
  9
$FILLETRAD
 40
0.0
  9
$AUNITS
 70
     0
  9
$AUPREC
 70
     0
  9
$MENU
  1
.
  9
$ELEVATION
 40
0.0
  9
$PELEVATION
 40
0.0
  9
$THICKNESS
 40
0.0
  9
$LIMCHECK
 70
     0
  9
$CHAMFERA
 40
0.0
  9
$CHAMFERB
 40
0.0
  9
$CHAMFERC
 40
0.0
  9
$CHAMFERD
 40
0.0
  9
$SKPOLY
 70
     0
  9
$TDCREATE
 40
2460081.564490741
  9
$TDUCREATE
 40
2460081.481157408
  9
$TDUPDATE
 40
2460081.564490741
  9
$TDUUPDATE
 40
2460081.481157408
  9
$TDINDWG
 40
0.0000000000
  9
$TDUSRTIMER
 40
0.0000000000
  9
$USRTIMER
 70
     1
  9
$ANGBASE
 50
0.0
  9
$ANGDIR
 70
     0
  9
$PDMODE
 70
     0
  9
$PDSIZE
 40
0.0
  9
$PLINEWID
 40
0.0
  9
$SPLFRAME
 70
     0
  9
$SPLINETYPE
 70
     6
  9
$SPLINESEGS
 70
     8
  9
$HANDSEED
  5
19A
  9
$SURFTAB1
 70
     6
  9
$SURFTAB2
 70
     6
  9
$SURFTYPE
 70
     6
  9
$SURFU
 70
     6
  9
$SURFV
 70
     6
  9
$UCSBASE
  2

  9
$UCSNAME
  2

  9
$UCSORG
 10
0.0
 20
0.0
 30
0.0
  9
$UCSXDIR
 10
1.0
 20
0.0
 30
0.0
  9
$UCSYDIR
 10
0.0
 20
1.0
 30
0.0
  9
$UCSORTHOREF
  2

  9
$UCSORTHOVIEW
 70
     0
  9
$UCSORGTOP
 10
0.0
 20
0.0
 30
0.0
  9
$UCSORGBOTTOM
 10
0.0
 20
0.0
 30
0.0
  9
$UCSORGLEFT
 10
0.0
 20
0.0
 30
0.0
  9
$UCSORGRIGHT
 10
0.0
 20
0.0
 30
0.0
  9
$UCSORGFRONT
 10
0.0
 20
0.0
 30
0.0
  9
$UCSORGBACK
 10
0.0
 20
0.0
 30
0.0
  9
$PUCSBASE
  2

  9
$PUCSNAME
  2

  9
$PUCSORG
 10
0.0
 20
0.0
 30
0.0
  9
$PUCSXDIR
 10
1.0
 20
0.0
 30
0.0
  9
$PUCSYDIR
 10
0.0
 20
1.0
 30
0.0
  9
$PUCSORTHOREF
  2

  9
$PUCSORTHOVIEW
 70
     0
  9
$PUCSORGTOP
 10
0.0
 20
0.0
 30
0.0
  9
$PUCSORGBOTTOM
 10
0.0
 20
0.0
 30
0.0
  9
$PUCSORGLEFT
 10
0.0
 20
0.0
 30
0.0
  9
$PUCSORGRIGHT
 10
0.0
 20
0.0
 30
0.0
  9
$PUCSORGFRONT
 10
0.0
 20
0.0
 30
0.0
  9
$PUCSORGBACK
 10
0.0
 20
0.0
 30
0.0
  9
$USERI1
 70
     0
  9
$USERI2
 70
     0
  9
$USERI3
 70
     0
  9
$USERI4
 70
     0
  9
$USERI5
 70
     0
  9
$USERR1
 40
0.0
  9
$USERR2
 40
0.0
  9
$USERR3
 40
0.0
  9
$USERR4
 40
0.0
  9
$USERR5
 40
0.0
  9
$WORLDVIEW
 70
     1
  9
$SHADEDGE
 70
     3
  9
$SHADEDIF
 70
    70
  9
$TILEMODE
 70
     1
  9
$MAXACTVP
 70
    64
  9
$PINSBASE
 10
0.0
 20
0.0
 30
0.0
  9
$PLIMCHECK
 70
     0
  9
$PEXTMIN
 10
1.000000000000000E+20
 20
1.000000000000000E+20
 30
1.000000000000000E+20
  9
$PEXTMAX
 10
-1.000000000000000E+20
 20
-1.000000000000000E+20
 30
-1.000000000000000E+20
  9
$PLIMMIN
 10
0.0
 20
0.0
  9
$PLIMMAX
 10
12.0
 20
9.0
  9
$UNITMODE
 70
     0
  9
$VISRETAIN
 70
     1
  9
$PLINEGEN
 70
     0
  9
$PSLTSCALE
 70
     1
  9
$TREEDEPTH
 70
  3020
  9
$CMLSTYLE
  2
Standard
  9
$CMLJUST
 70
     0
  9
$CMLSCALE
 40
1.0
  9
$PROXYGRAPHICS
 70
     1
  9
$MEASUREMENT
 70
     0
  9
$CELWEIGHT
370
    -1
  9
$ENDCAPS
280
     0
  9
$JOINSTYLE
280
     0
  9
$LWDISPLAY
290
     1
  9
$INSUNITS
 70
     4
  9
$HYPERLINKBASE
  1

  9
$STYLESHEET
  1

  9
$XEDIT
290
     1
  9
$CEPSNTYPE
380
     0
  9
$PSTYLEMODE
290
     1
  9
$FINGERPRINTGUID
  2
{2C58BE49-ECB4-DB4F-8A47-690A0CE0067D}
  9
$VERSIONGUID
  2
{C7A5A3AF-7892-054A-98F7-142876FFE2B0}
  9
$EXTNAMES
290
     1
  9
$PSVPSCALE
 40
0.0
  9
$OLESTARTUP
290
     0
  9
$SORTENTS
280
   127
  9
$INDEXCTL
280
     0
  9
$HIDETEXT
280
     1
  9
$XCLIPFRAME
280
     2
  9
$HALOGAP
280
     0
  9
$OBSCOLOR
 70
   257
  9
$OBSLTYPE
280
     0
  9
$INTERSECTIONDISPLAY
280
     0
  9
$INTERSECTIONCOLOR
 70
   257
  9
$DIMASSOC
280
     2
  9
$PROJECTNAME
  1

  9
$CAMERADISPLAY
290
     0
  9
$LENSLENGTH
 40
50.0
  9
$CAMERAHEIGHT
 40
0.0
  9
$STEPSPERSEC
 40
2.0
  9
$STEPSIZE
 40
6.0
  9
$3DDWFPREC
 40
2.0
  9
$PSOLWIDTH
 40
0.25
  9
$PSOLHEIGHT
 40
4.0
  9
$LOFTANG1
 40
1.570796326794896
  9
$LOFTANG2
 40
1.570796326794896
  9
$LOFTMAG1
 40
0.0
  9
$LOFTMAG2
 40
0.0
  9
$LOFTPARAM
 70
     7
  9
$LOFTNORMALS
280
     1
  9
$LATITUDE
 40
37.795
  9
$LONGITUDE
 40
-122.394
  9
$NORTHDIRECTION
 40
0.0
  9
$TIMEZONE
 70
 -8000
  9
$LIGHTGLYPHDISPLAY
280
     1
  9
$TILEMODELIGHTSYNCH
280
     1
  9
$CMATERIAL
347
11
  9
$SOLIDHIST
280
     0
  9
$SHOWHIST
280
     1
  9
$DWFFRAME
280
     2
  9
$DGNFRAME
280
     0
  9
$REALWORLDSCALE
290
     1
  9
$INTERFERECOLOR
 62
     1
  9
$INTERFEREOBJVS
345
33
  9
$INTERFEREVPVS
346
30
  9
$CSHADOW
280
     0
  9
$SHADOWPLANELOCATION
 40
0.0
  0
ENDSEC
  0
SECTION
  2
CLASSES
  0
CLASS
  1
ACDBDICTIONARYWDFLT
  2
AcDbDictionaryWithDefault
  3
ObjectDBX Classes
 90
        0
 91
        1
280
     0
281
     0
  0
CLASS
  1
MATERIAL
  2
AcDbMaterial
  3
ObjectDBX Classes
 90
     1153
 91
        3
280
     0
281
     0
  0
CLASS
  1
VISUALSTYLE
  2
AcDbVisualStyle
  3
ObjectDBX Classes
 90
     4095
 91
       24
280
     0
281
     0
  0
CLASS
  1
SCALE
  2
AcDbScale
  3
ObjectDBX Classes
 90
     1153
 91
       17
280
     0
281
     0
  0
CLASS
  1
TABLESTYLE
  2
AcDbTableStyle
  3
ObjectDBX Classes
 90
     4095
 91
        1
280
     0
281
     0
  0
CLASS
  1
MLEADERSTYLE
  2
AcDbMLeaderStyle
  3
ACDB_MLEADERSTYLE_CLASS
 90
     4095
 91
        1
280
     0
281
     0
  0
CLASS
  1
ACDBSECTIONVIEWSTYLE
  2
AcDbSectionViewStyle
  3
ObjectDBX Classes
 90
     1025
 91
        1
280
     0
281
     0
  0
CLASS
  1
ACDBDETAILVIEWSTYLE
  2
AcDbDetailViewStyle
  3
ObjectDBX Classes
 90
     1025
 91
        1
280
     0
281
     0
  0
CLASS
  1
DICTIONARYVAR
  2
AcDbDictionaryVar
  3
ObjectDBX Classes
 90
        0
 91
        5
280
     0
281
     0
  0
CLASS
  1
CELLSTYLEMAP
  2
AcDbCellStyleMap
  3
ObjectDBX Classes
 90
     1152
 91
        1
280
     0
281
     0
  0
ENDSEC
  0
SECTION
  2
TABLES
  0
TABLE
  2
VPORT
  5
8
330
0
100
AcDbSymbolTable
 70
     1
  0
VPORT
  5
57
330
8
100
AcDbSymbolTableRecord
100
AcDbViewportTableRecord
  2
*Active
 70
     0
 10
0.0
 20
0.0
 11
1.0
 21
1.0
 12
0.0
 22
0.0
 13
0.0
 23
0.0
 14
1.0
 24
1.0
 15
0.0
 25
0.0
 16
0.0
 26
0.0
 36
1.0
 17
104.9999970067687
 27
61.49998209793883
 37
0.0
 40
302.940024307821
 41
0.7070706301791173
 42
50.0
 43
0.0
 44
0.0
 50
0.0
 51
0.0
 71
     0
 72
   100
 73
     1
 74
     1
 75
     0
 76
     0
 77
     0
 78
     0
281
     0
 65
     1
110
0.0
120
0.0
130
0.0
111
1.0
121
0.0
131
0.0
112
0.0
122
1.0
132
0.0
 79
     0
146
0.0
 60
     3
 61
     5
292
     1
282
     1
141
0.0
142
0.0
 63
   250
421
  3355443
  0
ENDTAB
  0
TABLE
  2
LTYPE
  5
5
330
0
100
AcDbSymbolTable
 70
     1
  0
LTYPE
  5
5B
330
5
100
AcDbSymbolTableRecord
100
AcDbLinetypeTableRecord
  2
ByBlock
 70
     0
  3

 72
    65
 73
     0
 40
0.0
  0
LTYPE
  5
5C
330
5
100
AcDbSymbolTableRecord
100
AcDbLinetypeTableRecord
  2
ByLayer
 70
     0
  3

 72
    65
 73
     0
 40
0.0
  0
LTYPE
  5
5D
330
5
100
AcDbSymbolTableRecord
100
AcDbLinetypeTableRecord
  2
Continuous
 70
     0
  3
Solid line
 72
    65
 73
     0
 40
0.0
  0
ENDTAB
  0
TABLE
  2
LAYER
  5
2
330
0
100
AcDbSymbolTable
 70
     2
  0
LAYER
  5
54
330
2
100
AcDbSymbolTableRecord
100
AcDbLayerTableRecord
  2
0
 70
     0
 62
     7
  6
Continuous
370
     0
390
F
347
21
348
0
  0
LAYER
  5
16C
330
2
100
AcDbSymbolTableRecord
100
AcDbLayerTableRecord
  2
CAPA_BASE
 70
     0
 62
     7
  6
Continuous
370
     0
390
F
347
21
348
0
  0
ENDTAB
  0
TABLE
  2
STYLE
  5
3
330
0
100
AcDbSymbolTable
 70
     2
  0
STYLE
  5
55
330
3
100
AcDbSymbolTableRecord
100
AcDbTextStyleTableRecord
  2
Standard
 70
     0
 40
0.0
 41
1.0
 50
0.0
 71
     0
 42
0.2
  3
txt
  4

  0
STYLE
  5
5A
330
3
100
AcDbSymbolTableRecord
100
AcDbTextStyleTableRecord
  2
Annotative
 70
     0
 40
0.0
 41
1.0
 50
0.0
 71
     0
 42
0.2
  3
txt
  4

1001
AcadAnnotative
1000
AnnotativeData
1002
{
1070
     1
1070
     1
1002
}
  0
ENDTAB
  0
TABLE
  2
VIEW
  5
6
330
0
100
AcDbSymbolTable
 70
     0
  0
ENDTAB
  0
TABLE
  2
UCS
  5
7
330
0
100
AcDbSymbolTable
 70
     0
  0
ENDTAB
  0
TABLE
  2
APPID
  5
9
330
0
100
AcDbSymbolTable
 70
     2
  0
APPID
  5
56
330
9
100
AcDbSymbolTableRecord
100
AcDbRegAppTableRecord
  2
ACAD
 70
     0
  0
APPID
  5
5E
330
9
100
AcDbSymbolTableRecord
100
AcDbRegAppTableRecord
  2
AcadAnnotative
 70
     0
  0
ENDTAB
  0
TABLE
  2
DIMSTYLE
  5
A
330
0
100
AcDbSymbolTable
 70
     2
100
AcDbDimStyleTable
 71
     0
  0
DIMSTYLE
105
58
330
A
100
AcDbSymbolTableRecord
100
AcDbDimStyleTableRecord
  2
Standard
 70
     0
340
55
  0
DIMSTYLE
105
59
330
A
100
AcDbSymbolTableRecord
100
AcDbDimStyleTableRecord
  2
Annotative
 70
     0
340
55
1001
AcadAnnotative
1000
AnnotativeData
1002
{
1070
     1
1070
     1
1002
}
  0
ENDTAB
  0
TABLE
  2
BLOCK_RECORD
  5
1
330
0
100
AcDbSymbolTable
 70
     4
  0
BLOCK_RECORD
  5
70
330
1
100
AcDbSymbolTableRecord
100
AcDbBlockTableRecord
  2
*Model_Space
340
73
 70
     0
280
     1
281
     0
  0
BLOCK_RECORD
  5
6C
330
1
100
AcDbSymbolTableRecord
100
AcDbBlockTableRecord
  2
*Paper_Space
340
6F
 70
     0
280
     1
281
     0
  0
BLOCK_RECORD
  5
74
330
1
100
AcDbSymbolTableRecord
100
AcDbBlockTableRecord
  2
*Paper_Space0
340
77
 70
     0
280
     1
281
     0
  0
BLOCK_RECORD
  5
16D
330
1
100
AcDbSymbolTableRecord
100
AcDbBlockTableRecord
  2
Block_0
340
0
102
{BLKREFS
331
16E
102
}
 70
     0
280
     1
281
     0
  0
BLOCK_RECORD
  5
179
330
1
100
AcDbSymbolTableRecord
100
AcDbBlockTableRecord
  2
Block_1
340
0
102
{BLKREFS
331
17A
102
}
 70
     0
280
     1
281
     0
  0
BLOCK_RECORD
  5
185
330
1
100
AcDbSymbolTableRecord
100
AcDbBlockTableRecord
  2
Block_2
340
0
102
{BLKREFS
331
186
102
}
 70
     0
280
     1
281
     0
  0
ENDTAB
  0
ENDSEC
  0
SECTION
  2
BLOCKS
  0
BLOCK
  5
71
330
70
100
AcDbEntity
  8
0
100
AcDbBlockBegin
  2
*Model_Space
 70
     0
 10
0.0
 20
0.0
 30
0.0
  3
*Model_Space
  1

  0
ENDBLK
  5
72
330
70
100
AcDbEntity
  8
0
100
AcDbBlockEnd
  0
BLOCK
  5
6D
330
6C
100
AcDbEntity
 67
     1
  8
0
100
AcDbBlockBegin
  2
*Paper_Space
 70
     0
 10
0.0
 20
0.0
 30
0.0
  3
*Paper_Space
  1

  0
ENDBLK
  5
6E
330
6C
100
AcDbEntity
 67
     1
  8
0
100
AcDbBlockEnd
  0
BLOCK
  5
75
330
74
100
AcDbEntity
 67
     1
  8
0
100
AcDbBlockBegin
  2
*Paper_Space0
 70
     0
 10
0.0
 20
0.0
 30
0.0
  3
*Paper_Space0
  1

  0
ENDBLK
  5
76
330
74
100
AcDbEntity
 67
     1
  8
0
100
AcDbBlockEnd
  0
BLOCK
  5
16F
330
16D
100
AcDbEntity
  8
0
100
AcDbBlockBegin
  2
Block_0
 70
     0
 10
0.0
 20
0.0
 30
0.0
  3
Block_0
  1

  0
LWPOLYLINE
  5
171
330
16D
100
AcDbEntity
  8
CAPA_BASE
100
AcDbPolyline
 90
        4
 70
     1
 43
0.0
 10
111.1001161985567
 20
109.4690460930442
 10
108.6001161985569
 20
109.7790460930442
 10
108.6001161985569
 20
109.1590460930441
 10
108.6001161985569
 20
109.1590460930441
  0
HATCH
  5
172
330
16D
100
AcDbEntity
  8
CAPA_BASE
 62
    18
420
        0
440
 33554687
100
AcDbHatch
 10
0.0
 20
0.0
 30
0.0
210
0.0
220
0.0
230
1.0
  2
SOLID
 70
     1
 71
     1
 91
        1
 92
        1
 93
        3
 72
     1
 10
111.1001161985567
 20
109.4690460930442
 11
108.6001161985569
 21
109.7790460930442
 72
     1
 10
108.6001161985569
 20
109.7790460930442
 11
108.6001161985569
 21
109.1590460930441
 72
     1
 10
108.6001161985569
 20
109.1590460930441
 11
111.1001161985567
 21
109.4690460930442
 97
        1
330
171
 75
     2
 76
     1
 98
        1
 10
0.0
 20
0.0
450
        0
451
        0
460
0.0
461
0.0
452
        0
462
0.0
453
        0
470

  0
LWPOLYLINE
  5
173
330
16D
100
AcDbEntity
  8
CAPA_BASE
100
AcDbPolyline
 90
        4
 70
     1
 43
0.0
 10
26.60011619855691
 20
109.4690460930442
 10
29.100116198557
 20
109.1590460930441
 10
29.100116198557
 20
109.7790460930442
 10
29.100116198557
 20
109.7790460930442
  0
HATCH
  5
174
330
16D
100
AcDbEntity
  8
CAPA_BASE
 62
    18
420
        0
440
 33554687
100
AcDbHatch
 10
0.0
 20
0.0
 30
0.0
210
0.0
220
0.0
230
1.0
  2
SOLID
 70
     1
 71
     1
 91
        1
 92
        1
 93
        3
 72
     1
 10
26.60011619855691
 20
109.4690460930442
 11
29.100116198557
 21
109.1590460930441
 72
     1
 10
29.100116198557
 20
109.1590460930441
 11
29.100116198557
 21
109.7790460930442
 72
     1
 10
29.100116198557
 20
109.7790460930442
 11
26.60011619855691
 21
109.4690460930442
 97
        1
330
173
 75
     2
 76
     1
 98
        1
 10
0.0
 20
0.0
450
        0
451
        0
460
0.0
461
0.0
452
        0
462
0.0
453
        0
470

  0
LINE
  5
175
330
16D
100
AcDbEntity
  8
CAPA_BASE
 62
    18
420
        0
370
    18
100
AcDbLine
 10
111.1001161985567
 20
130.9972317463443
 30
0.0
 11
111.1001161985567
 21
108.4690460930441
 31
0.0
  0
LINE
  5
176
330
16D
100
AcDbEntity
  8
CAPA_BASE
 62
    18
420
        0
370
    18
100
AcDbLine
 10
26.60011619855691
 20
118.9972317463442
 30
0.0
 11
26.60011619855691
 21
108.4690460930441
 31
0.0
  0
LINE
  5
177
330
16D
100
AcDbEntity
  8
CAPA_BASE
 62
    18
420
        0
370
    18
100
AcDbLine
 10
111.1001161985567
 20
109.4690460930442
 30
0.0
 11
26.60011619855691
 21
109.4690460930442
 31
0.0
  0
MTEXT
  5
178
330
16D
100
AcDbEntity
  8
CAPA_BASE
100
AcDbMText
 10
66.20428151488882
 20
110.2627894655712
 30
0.0
 40
0.2
 41
0.0
 46
0.0
 71
     7
 72
     1
  1
\C18;\c0;\FArial Bold|b1|i0|c1;\H2.997200;\W0.700000;169
 73
     1
 44
1.0
  0
ENDBLK
  5
170
330
16D
100
AcDbEntity
  8
0
100
AcDbBlockEnd
  0
BLOCK
  5
17B
330
179
100
AcDbEntity
  8
0
100
AcDbBlockBegin
  2
Block_1
 70
     0
 10
0.0
 20
0.0
 30
0.0
  3
Block_1
  1

  0
LWPOLYLINE
  5
17D
330
179
100
AcDbEntity
  8
CAPA_BASE
100
AcDbPolyline
 90
        4
 70
     1
 43
0.0
 10
147.789598597757
 20
144.4972317463441
 10
147.4795985977567
 20
141.9972317463444
 10
148.0995985977567
 20
141.9972317463444
 10
148.0995985977567
 20
141.9972317463444
  0
HATCH
  5
17E
330
179
100
AcDbEntity
  8
CAPA_BASE
 62
    18
420
        0
440
 33554687
100
AcDbHatch
 10
0.0
 20
0.0
 30
0.0
210
0.0
220
0.0
230
1.0
  2
SOLID
 70
     1
 71
     1
 91
        1
 92
        1
 93
        3
 72
     1
 10
147.789598597757
 20
144.4972317463441
 11
147.4795985977567
 21
141.9972317463444
 72
     1
 10
147.4795985977567
 20
141.9972317463444
 11
148.0995985977567
 21
141.9972317463444
 72
     1
 10
148.0995985977567
 20
141.9972317463444
 11
147.789598597757
 21
144.4972317463441
 97
        1
330
17D
 75
     2
 76
     1
 98
        1
 10
0.0
 20
0.0
450
        0
451
        0
460
0.0
461
0.0
452
        0
462
0.0
453
        0
470

  0
LWPOLYLINE
  5
17F
330
179
100
AcDbEntity
  8
CAPA_BASE
100
AcDbPolyline
 90
        4
 70
     1
 43
0.0
 10
147.789598597757
 20
119.4972317463442
 10
148.0995985977567
 20
121.9972317463443
 10
147.4795985977567
 20
121.9972317463443
 10
147.4795985977567
 20
121.9972317463443
  0
HATCH
  5
180
330
179
100
AcDbEntity
  8
CAPA_BASE
 62
    18
420
        0
440
 33554687
100
AcDbHatch
 10
0.0
 20
0.0
 30
0.0
210
0.0
220
0.0
230
1.0
  2
SOLID
 70
     1
 71
     1
 91
        1
 92
        1
 93
        3
 72
     1
 10
147.789598597757
 20
119.4972317463442
 11
148.0995985977567
 21
121.9972317463443
 72
     1
 10
148.0995985977567
 20
121.9972317463443
 11
147.4795985977567
 21
121.9972317463443
 72
     1
 10
147.4795985977567
 20
121.9972317463443
 11
147.789598597757
 21
119.4972317463442
 97
        1
330
17F
 75
     2
 76
     1
 98
        1
 10
0.0
 20
0.0
450
        0
451
        0
460
0.0
461
0.0
452
        0
462
0.0
453
        0
470

  0
LINE
  5
181
330
179
100
AcDbEntity
  8
CAPA_BASE
 62
    18
420
        0
370
    18
100
AcDbLine
 10
156.7895985977564
 20
144.4972317463441
 30
0.0
 11
146.789598597757
 21
144.4972317463441
 31
0.0
  0
LINE
  5
182
330
179
100
AcDbEntity
  8
CAPA_BASE
 62
    18
420
        0
370
    18
100
AcDbLine
 10
156.7895985977564
 20
119.4972317463442
 30
0.0
 11
146.789598597757
 21
119.4972317463442
 31
0.0
  0
LINE
  5
183
330
179
100
AcDbEntity
  8
CAPA_BASE
 62
    18
420
        0
370
    18
100
AcDbLine
 10
147.789598597757
 20
144.4972317463441
 30
0.0
 11
147.789598597757
 21
119.4972317463442
 31
0.0
  0
MTEXT
  5
184
330
179
100
AcDbEntity
  8
CAPA_BASE
100
AcDbMText
 10
146.9958509289635
 20
130.2332220811563
 30
0.0
 40
0.2
 41
0.0
 46
0.0
 71
     7
 72
     1
  1
\C18;\c0;\FArial Bold|b1|i0|c1;\H2.997200;\W0.700000;50
 11
0.0000000000000003
 21
1.0
 31
0.0
 73
     1
 44
1.0
  0
ENDBLK
  5
17C
330
179
100
AcDbEntity
  8
0
100
AcDbBlockEnd
  0
BLOCK
  5
187
330
185
100
AcDbEntity
  8
0
100
AcDbBlockBegin
  2
Block_2
 70
     0
 10
0.0
 20
0.0
 30
0.0
  3
Block_2
  1

  0
LWPOLYLINE
  5
189
330
185
100
AcDbEntity
  8
CAPA_BASE
100
AcDbPolyline
 90
        4
 70
     1
 43
0.0
 10
121.100116198557
 20
90.29336508984433
 10
120.7901161985567
 20
87.79336508984393
 10
121.4101161985567
 20
87.79336508984393
 10
121.4101161985567
 20
87.79336508984393
  0
HATCH
  5
18A
330
185
100
AcDbEntity
  8
CAPA_BASE
 62
    18
420
        0
440
 33554687
100
AcDbHatch
 10
0.0
 20
0.0
 30
0.0
210
0.0
220
0.0
230
1.0
  2
SOLID
 70
     1
 71
     1
 91
        1
 92
        1
 93
        3
 72
     1
 10
121.100116198557
 20
90.29336508984433
 11
120.7901161985567
 21
87.79336508984393
 72
     1
 10
120.7901161985567
 20
87.79336508984393
 11
121.4101161985567
 21
87.79336508984393
 72
     1
 10
121.4101161985567
 20
87.79336508984393
 11
121.100116198557
 21
90.29336508984433
 97
        1
330
189
 75
     2
 76
     1
 98
        1
 10
0.0
 20
0.0
450
        0
451
        0
460
0.0
461
0.0
452
        0
462
0.0
453
        0
470

  0
LWPOLYLINE
  5
18B
330
185
100
AcDbEntity
  8
CAPA_BASE
100
AcDbPolyline
 90
        4
 70
     1
 43
0.0
 10
121.100116198557
 20
53.29336508984432
 10
121.4101161985567
 20
55.79336508984408
 10
120.7901161985567
 20
55.79336508984408
 10
120.7901161985567
 20
55.79336508984408
  0
HATCH
  5
18C
330
185
100
AcDbEntity
  8
CAPA_BASE
 62
    18
420
        0
440
 33554687
100
AcDbHatch
 10
0.0
 20
0.0
 30
0.0
210
0.0
220
0.0
230
1.0
  2
SOLID
 70
     1
 71
     1
 91
        1
 92
        1
 93
        3
 72
     1
 10
121.100116198557
 20
53.29336508984432
 11
121.4101161985567
 21
55.79336508984408
 72
     1
 10
121.4101161985567
 20
55.79336508984408
 11
120.7901161985567
 21
55.79336508984408
 72
     1
 10
120.7901161985567
 20
55.79336508984408
 11
121.100116198557
 21
53.29336508984432
 97
        1
330
18B
 75
     2
 76
     1
 98
        1
 10
0.0
 20
0.0
450
        0
451
        0
460
0.0
461
0.0
452
        0
462
0.0
453
        0
470

  0
LINE
  5
18D
330
185
100
AcDbEntity
  8
CAPA_BASE
 62
    18
420
        0
370
    18
100
AcDbLine
 10
52.60011619855686
 20
90.29336508984433
 30
0.0
 11
122.100116198557
 21
90.29336508984433
 31
0.0
  0
LINE
  5
18E
330
185
100
AcDbEntity
  8
CAPA_BASE
 62
    18
420
        0
370
    18
100
AcDbLine
 10
111.7185021252567
 20
53.29336508984432
 30
0.0
 11
122.100116198557
 21
53.29336508984432
 31
0.0
  0
LINE
  5
18F
330
185
100
AcDbEntity
  8
CAPA_BASE
 62
    18
420
        0
370
    18
100
AcDbLine
 10
121.100116198557
 20
90.29336508984433
 30
0.0
 11
121.100116198557
 21
53.29336508984432
 31
0.0
  0
MTEXT
  5
190
330
185
100
AcDbEntity
  8
CAPA_BASE
100
AcDbMText
 10
120.3063624611078
 20
70.02948945731837
 30
0.0
 40
0.2
 41
0.0
 46
0.0
 71
     7
 72
     1
  1
\C18;\c0;\FArial Bold|b1|i0|c1;\H2.997200;\W0.700000;74
 11
0.0000000000000003
 21
1.0
 31
0.0
 73
     1
 44
1.0
  0
ENDBLK
  5
188
330
185
100
AcDbEntity
  8
0
100
AcDbBlockEnd
  0
ENDSEC
  0
SECTION
  2
ENTITIES
  0
LINE
  5
78
330
70
100
AcDbEntity
  8
0
 62
    18
420
        0
370
    18
100
AcDbLine
 10
46.60011619855697
 20
135.9972317463442
 30
0.0
 11
39.10011619855703
 21
135.9972317463442
 31
0.0
  0
LINE
  5
79
330
70
100
AcDbEntity
  8
0
 62
    18
420
        0
370
    18
100
AcDbLine
 10
39.10011619855703
 20
127.9972317463442
 30
0.0
 11
46.60011619855697
 21
127.9972317463442
 31
0.0
  0
LINE
  5
7A
330
70
100
AcDbEntity
  8
0
 62
    18
420
        0
370
    18
100
AcDbLine
 10
109.1001161985569
 20
135.9972317463442
 30
0.0
 11
46.60011619855697
 21
135.9972317463442
 31
0.0
  0
LINE
  5
7B
330
70
100
AcDbEntity
  8
0
 62
    18
420
        0
370
    18
100
AcDbLine
 10
46.60011619855697
 20
127.9972317463442
 30
0.0
 11
109.1001161985569
 21
127.9972317463442
 31
0.0
  0
SPLINE
  5
7C
330
70
100
AcDbEntity
  8
0
 62
    18
420
        0
370
    18
100
AcDbSpline
210
0.0
220
0.0
230
1.0
 70
     8
 71
     3
 72
     8
 73
     4
 74
     0
 42
0.0000000001
 43
0.0000000001
 40
0.0
 40
0.0
 40
0.0
 40
0.0
 40
1.0
 40
1.0
 40
1.0
 40
1.0
 10
109.3501161985571
 20
139.4972317463443
 30
0.0
 10
109.2120450110992
 20
139.4972317463443
 30
0.0
 10
109.1001161985569
 20
139.385302933802
 30
0.0
 10
109.1001161985569
 20
139.2472317463444
 30
0.0
  0
SPLINE
  5
7D
330
70
100
AcDbEntity
  8
0
 62
    18
420
        0
370
    18
100
AcDbSpline
210
0.0
220
0.0
230
1.0
 70
     8
 71
     3
 72
     8
 73
     4
 74
     0
 42
0.0000000001
 43
0.0000000001
 40
0.0
 40
0.0
 40
0.0
 40
0.0
 40
1.0
 40
1.0
 40
1.0
 40
1.0
 10
109.1001161985569
 20
124.7472317463443
 30
0.0
 10
109.1001161985569
 20
124.6091605588867
 30
0.0
 10
109.2120450110992
 20
124.4972317463441
 30
0.0
 10
109.3501161985571
 20
124.4972317463441
 30
0.0
  0
LINE
  5
7E
330
70
100
AcDbEntity
  8
0
 62
    18
420
        0
370
    18
100
AcDbLine
 10
110.7185021252567
 20
139.4972317463443
 30
0.0
 11
109.3501161985571
 21
139.4972317463443
 31
0.0
  0
LINE
  5
7F
330
70
100
AcDbEntity
  8
0
 62
    18
420
        0
370
    18
100
AcDbLine
 10
109.3501161985571
 20
124.4972317463444
 30
0.0
 11
110.7185021252567
 21
124.4972317463444
 31
0.0
  0
SPLINE
  5
80
330
70
100
AcDbEntity
  8
0
 62
    18
420
        0
370
    18
100
AcDbSpline
210
0.0
220
0.0
230
1.0
 70
     8
 71
     3
 72
     8
 73
     4
 74
     0
 42
0.0000000001
 43
0.0000000001
 40
0.0
 40
0.0
 40
0.0
 40
0.0
 40
1.0
 40
1.0
 40
1.0
 40
1.0
 10
110.7185021252567
 20
124.4972317463441
 30
0.0
 10
110.8530421562372
 20
124.4972317463441
 30
0.0
 10
110.9634542216631
 20
124.6037065206784
 30
0.0
 10
110.9683374017609
 20
124.7381579040414
 30
0.0
  0
SPLINE
  5
81
330
70
100
AcDbEntity
  8
0
 62
    18
420
        0
370
    18
100
AcDbSpline
210
0.0
220
0.0
230
1.0
 70
     8
 71
     3
 72
     8
 73
     4
 74
     0
 42
0.0000000001
 43
0.0000000001
 40
0.0
 40
0.0
 40
0.0
 40
0.0
 40
1.0
 40
1.0
 40
1.0
 40
1.0
 10
110.9683374017609
 20
139.2563055886469
 30
0.0
 10
110.9634542216631
 20
139.39075697201
 30
0.0
 10
110.8530421562372
 20
139.4972317463443
 30
0.0
 10
110.7185021252567
 20
139.4972317463443
 30
0.0
  0
SPLINE
  5
82
330
70
100
AcDbEntity
  8
0
 62
    18
420
        0
370
    18
100
AcDbSpline
210
0.0
220
0.0
230
1.0
 70
     8
 71
     3
 72
     8
 73
     4
 74
     0
 42
0.0000000001
 43
0.0000000001
 40
0.0
 40
0.0
 40
0.0
 40
0.0
 40
1.0
 40
1.0
 40
1.0
 40
1.0
 10
110.9683374018142
 20
124.7381579041938
 30
0.0
 10
111.0561826960958
 20
127.1568525050388
 30
0.0
 10
111.1001161985567
 20
129.5769424314306
 30
0.0
 10
111.1001161985567
 20
131.9972317463443
 30
0.0
  0
SPLINE
  5
83
330
70
100
AcDbEntity
  8
0
 62
    18
420
        0
370
    18
100
AcDbSpline
210
0.0
220
0.0
230
1.0
 70
     8
 71
     3
 72
     8
 73
     4
 74
     0
 42
0.0000000001
 43
0.0000000001
 40
0.0
 40
0.0
 40
0.0
 40
0.0
 40
1.0
 40
1.0
 40
1.0
 40
1.0
 10
111.1001161985567
 20
131.9972317463443
 30
0.0
 10
111.1001161985567
 20
134.4175210612577
 30
0.0
 10
111.0561826960958
 20
136.8376109876496
 30
0.0
 10
110.9683374018142
 20
139.2563055884945
 30
0.0
  0
LINE
  5
84
330
70
100
AcDbEntity
  8
0
 62
    18
420
        0
370
    18
100
AcDbLine
 10
27.09991751465694
 20
143.9974304301443
 30
0.0
 11
36.27671406165712
 21
134.8206338832443
 31
0.0
  0
LINE
  5
85
330
70
100
AcDbEntity
  8
0
 62
    18
420
        0
370
    18
100
AcDbLine
 10
43.10011619855685
 20
135.9972317463442
 30
0.0
 11
51.10031488235701
 21
143.9974304301443
 31
0.0
  0
LINE
  5
86
330
70
100
AcDbEntity
  8
0
 62
    18
420
        0
370
    18
100
AcDbLine
 10
36.27972990895702
 20
129.1768454567443
 30
0.0
 11
27.09991751465694
 21
119.9970330625444
 31
0.0
  0
SPLINE
  5
87
330
70
100
AcDbEntity
  8
0
 62
    18
420
        0
370
    18
100
AcDbSpline
210
0.0
220
0.0
230
1.0
 70
     8
 71
     3
 72
     8
 73
     4
 74
     0
 42
0.0000000001
 43
0.0000000001
 40
0.0
 40
0.0
 40
0.0
 40
0.0
 40
1.0
 40
1.0
 40
1.0
 40
1.0
 10
27.07887590164103
 20
119.9865253624341
 30
0.0
 10
27.08698851224195
 20
119.9871613492234
 30
0.0
 10
27.09453507231041
 20
119.9909299286451
 30
0.0
 10
27.09991751473715
 20
119.9970330625514
 30
0.0
  0
LWPOLYLINE
  5
88
330
70
100
AcDbEntity
  8
0
 62
    18
420
        0
370
    18
100
AcDbPolyline
 90
        7
 70
     0
 43
0.0
 10
27.07887166445703
 20
143.9974219621442
 10
27.07847478155693
 20
142.9974221048443
 10
27.07705443655714
 20
138.9974225518443
 10
27.07587945045693
 20
130.9974225153442
 10
27.07628088505698
 20
127.9502204242443
 10
27.07887167545703
 20
119.9970415192441
 10
27.07887590155696
 20
119.9865253623443
  0
LINE
  5
89
330
70
100
AcDbEntity
  8
0
 62
    18
420
        0
370
    18
100
AcDbLine
 10
27.09991751465694
 20
143.9974304301443
 30
0.0
 11
27.07887166445703
 21
143.9974219621442
 31
0.0
  0
LINE
  5
8A
330
70
100
AcDbEntity
  8
0
 62
    18
420
        0
370
    18
100
AcDbLine
 10
43.10011619855685
 20
127.9972317463442
 30
0.0
 11
51.10031488235701
 21
119.9970330625444
 31
0.0
  0
SPLINE
  5
8B
330
70
100
AcDbEntity
  8
0
 62
    18
420
        0
370
    18
100
AcDbSpline
210
0.0
220
0.0
230
1.0
 70
     8
 71
     3
 72
     8
 73
     4
 74
     0
 42
0.0000000001
 43
0.0000000001
 40
0.0
 40
0.0
 40
0.0
 40
0.0
 40
1.0
 40
1.0
 40
1.0
 40
1.0
 10
51.11082258241973
 20
119.9759914494316
 30
0.0
 10
51.11018099074554
 20
119.9841025035995
 30
0.0
 10
51.10641340459497
 20
119.9916470746476
 30
0.0
 10
51.10031488230279
 20
119.9970330625277
 30
0.0
  0
LWPOLYLINE
  5
8C
330
70
100
AcDbEntity
  8
0
 62
    18
420
        0
370
    18
100
AcDbPolyline
 90
        7
 70
     0
 43
0.0
 10
27.09992598265703
 20
119.9759872122444
 10
28.099925839957
 20
119.9755903293443
 10
32.09992539295696
 20
119.9741699844442
 10
40.09992542945709
 20
119.9729949982442
 10
43.14712752055701
 20
119.9733964329441
 10
51.10030642555681
 20
119.9759872232444
 10
51.11082258245694
 20
119.9759914494444
  0
LINE
  5
8D
330
70
100
AcDbEntity
  8
0
 62
    18
420
        0
370
    18
100
AcDbLine
 10
27.09991751465694
 20
119.9970330625444
 30
0.0
 11
27.09992598265703
 21
119.9759872122444
 31
0.0
  0
SPLINE
  5
8E
330
70
100
AcDbEntity
  8
0
 62
    18
420
        0
370
    18
100
AcDbSpline
210
0.0
220
0.0
230
1.0
 70
     8
 71
     3
 72
     8
 73
     4
 74
     0
 42
0.0000000001
 43
0.0000000001
 40
0.0
 40
0.0
 40
0.0
 40
0.0
 40
1.0
 40
1.0
 40
1.0
 40
1.0
 10
51.12135649543805
 20
144.0079381314484
 30
0.0
 10
51.1132443515487
 20
144.007300462236
 30
0.0
 10
51.10569838874611
 20
144.0035321806457
 30
0.0
 10
51.10031488234257
 20
143.9974304301337
 30
0.0
  0
LINE
  5
8F
330
70
100
AcDbEntity
  8
0
 62
    18
420
        0
370
    18
100
AcDbLine
 10
51.10031488235701
 20
119.9970330625444
 30
0.0
 11
51.12136073255692
 21
119.9970415305441
 31
0.0
  0
SPLINE
  5
90
330
70
100
AcDbEntity
  8
0
 62
    18
420
        0
370
    18
100
AcDbSpline
210
0.0
220
0.0
230
1.0
 70
     8
 71
     3
 72
     8
 73
     4
 74
     0
 42
0.0000000001
 43
0.0000000001
 40
0.0
 40
0.0
 40
0.0
 40
0.0
 40
1.0
 40
1.0
 40
1.0
 40
1.0
 10
51.6001161985196
 20
143.9972317463473
 30
0.0
 10
51.43441132128948
 20
144.018409151105
 30
0.0
 10
51.26721067859577
 20
144.0255160513624
 30
0.0
 10
51.10030642368851
 20
144.0184762712498
 30
0.0
  0
SPLINE
  5
91
330
70
100
AcDbEntity
  8
0
 62
    18
420
        0
370
    18
100
AcDbSpline
210
0.0
220
0.0
230
1.0
 70
     8
 71
     3
 72
     8
 73
     4
 74
     0
 42
0.0000000001
 43
0.0000000001
 40
0.0
 40
0.0
 40
0.0
 40
0.0
 40
1.0
 40
1.0
 40
1.0
 40
1.0
 10
51.60011619853661
 20
143.9972317463101
 30
0.0
 10
51.44086399419302
 20
144.0099199496407
 30
0.0
 10
51.28101670033225
 20
144.0134945752384
 30
0.0
 10
51.12135649544608
 20
144.0079381314378
 30
0.0
  0
LINE
  5
92
330
70
100
AcDbEntity
  8
0
 62
    18
420
        0
370
    18
100
AcDbLine
 10
51.10031488235701
 20
143.9974304301443
 30
0.0
 11
51.10030642365707
 21
144.0184762712443
 31
0.0
  0
LINE
  5
93
330
70
100
AcDbEntity
  8
0
 62
    18
420
        0
370
    18
100
AcDbLine
 10
51.60011619855683
 20
143.9972317463441
 30
0.0
 11
51.60011619855683
 21
135.9972317463442
 31
0.0
  0
LINE
  5
94
330
70
100
AcDbEntity
  8
0
 62
    18
420
        0
370
    18
100
AcDbLine
 10
51.60011619855683
 20
127.9972317463442
 30
0.0
 11
51.60011619855683
 21
119.9972317463442
 31
0.0
  0
SPLINE
  5
95
330
70
100
AcDbEntity
  8
0
 62
    18
420
        0
370
    18
100
AcDbSpline
210
0.0
220
0.0
230
1.0
 70
     8
 71
     3
 72
     8
 73
     4
 74
     0
 42
0.0000000001
 43
0.0000000001
 40
0.0
 40
0.0
 40
0.0
 40
0.0
 40
1.0
 40
1.0
 40
1.0
 40
1.0
 10
51.12136073244975
 20
119.9970415305108
 30
0.0
 10
51.28094591307477
 20
119.9969815498135
 30
0.0
 10
51.44053111619744
 20
119.9970449551084
 30
0.0
 10
51.60011619877693
 20
119.9972317463385
 30
0.0
  0
SPLINE
  5
96
330
70
100
AcDbEntity
  8
0
 62
    18
420
        0
370
    18
100
AcDbSpline
210
0.0
220
0.0
230
1.0
 70
     8
 71
     3
 72
     8
 73
     4
 74
     0
 42
0.0000000001
 43
0.0000000001
 40
0.0
 40
0.0
 40
0.0
 40
0.0
 40
1.0
 40
1.0
 40
1.0
 40
1.0
 10
26.60011619851969
 20
119.9972317463109
 30
0.0
 10
26.76582107809843
 20
119.9760543323291
 30
0.0
 10
26.93302172441999
 20
119.9689474289909
 30
0.0
 10
27.09992598269586
 20
119.975987212263
 30
0.0
  0
SPLINE
  5
97
330
70
100
AcDbEntity
  8
0
 62
    18
420
        0
370
    18
100
AcDbSpline
210
0.0
220
0.0
230
1.0
 70
     8
 71
     3
 72
     8
 73
     4
 74
     0
 42
0.0000000001
 43
0.0000000001
 40
0.0
 40
0.0
 40
0.0
 40
0.0
 40
1.0
 40
1.0
 40
1.0
 40
1.0
 10
26.60011619849916
 20
119.9972317519527
 30
0.0
 10
26.75936840250554
 20
119.9845435422119
 30
0.0
 10
26.91921569664769
 20
119.9809689151347
 30
0.0
 10
27.07887590158617
 20
119.9865253624117
 30
0.0
  0
LINE
  5
98
330
70
100
AcDbEntity
  8
0
 62
    18
420
        0
370
    18
100
AcDbLine
 10
26.60011619855691
 20
119.9972317463442
 30
0.0
 11
26.60011619855691
 21
143.9972317463441
 31
0.0
  0
SPLINE
  5
99
330
70
100
AcDbEntity
  8
0
 62
    18
420
        0
370
    18
100
AcDbSpline
210
0.0
220
0.0
230
1.0
 70
     8
 71
     3
 72
     8
 73
     4
 74
     0
 42
0.0000000001
 43
0.0000000001
 40
0.0
 40
0.0
 40
0.0
 40
0.0
 40
1.0
 40
1.0
 40
1.0
 40
1.0
 10
27.07887166458762
 20
143.9974219621208
 30
0.0
 10
26.91928648411276
 20
143.9974819428177
 30
0.0
 10
26.75970128113384
 20
143.9974185375232
 30
0.0
 10
26.60011619870482
 20
143.9972317462937
 30
0.0
  0
LINE
  5
9A
330
70
100
AcDbEntity
  8
0
 62
    18
420
        0
370
    18
100
AcDbLine
 10
51.10011619855713
 20
119.4972317463442
 30
0.0
 11
27.10011619855693
 21
119.4972317463442
 31
0.0
  0
SPLINE
  5
9B
330
70
100
AcDbEntity
  8
0
 62
    18
420
        0
370
    18
100
AcDbSpline
210
0.0
220
0.0
230
1.0
 70
     8
 71
     3
 72
     8
 73
     4
 74
     0
 42
0.0000000001
 43
0.0000000001
 40
0.0
 40
0.0
 40
0.0
 40
0.0
 40
1.0
 40
1.0
 40
1.0
 40
1.0
 10
27.09992598264484
 20
119.9759872123611
 30
0.0
 10
27.09986600194762
 20
119.8164020319052
 30
0.0
 10
27.09992940724213
 20
119.6568168289456
 30
0.0
 10
27.10011619847158
 20
119.4972317465355
 30
0.0
  0
SPLINE
  5
9C
330
70
100
AcDbEntity
  8
0
 62
    18
420
        0
370
    18
100
AcDbSpline
210
0.0
220
0.0
230
1.0
 70
     8
 71
     3
 72
     8
 73
     4
 74
     0
 42
0.0000000001
 43
0.0000000001
 40
0.0
 40
0.0
 40
0.0
 40
0.0
 40
1.0
 40
1.0
 40
1.0
 40
1.0
 10
51.10011619850997
 20
119.4972317463096
 30
0.0
 10
51.1128043967416
 20
119.6564839509159
 30
0.0
 10
51.11637902193341
 20
119.8163312445085
 30
0.0
 10
51.11082258244026
 20
119.9759914494014
 30
0.0
  0
SPLINE
  5
9D
330
70
100
AcDbEntity
  8
0
 62
    18
420
        0
370
    18
100
AcDbSpline
210
0.0
220
0.0
230
1.0
 70
     8
 71
     3
 72
     8
 73
     4
 74
     0
 42
0.0000000001
 43
0.0000000001
 40
0.0
 40
0.0
 40
0.0
 40
0.0
 40
1.0
 40
1.0
 40
1.0
 40
1.0
 10
51.10011619849103
 20
119.497231746307
 30
0.0
 10
51.12129361247276
 20
119.6629366258854
 30
0.0
 10
51.12840051581103
 20
119.8301372722073
 30
0.0
 10
51.12136073253895
 20
119.9970415304832
 30
0.0
  0
LWPOLYLINE
  5
9E
330
70
100
AcDbEntity
  8
0
 62
    18
420
        0
370
    18
100
AcDbPolyline
 90
        6
 70
     0
 43
0.0
 10
39.10011619855703
 20
144.0214930936441
 10
38.10011619855699
 20
144.0214654632443
 10
34.1001162468569
 20
144.0208518398443
 10
30.60002104845694
 20
144.0198030507444
 10
27.09992597335689
 20
144.0184762712443
 10
27.08940981435711
 20
144.0184720441443
  0
SPLINE
  5
9F
330
70
100
AcDbEntity
  8
0
 62
    18
420
        0
370
    18
100
AcDbSpline
210
0.0
220
0.0
230
1.0
 70
     8
 71
     3
 72
     8
 73
     4
 74
     0
 42
0.0000000001
 43
0.0000000001
 40
0.0
 40
0.0
 40
0.0
 40
0.0
 40
1.0
 40
1.0
 40
1.0
 40
1.0
 10
27.10011619849244
 20
144.4972317463496
 30
0.0
 10
27.08881781888105
 20
144.3379117270269
 30
0.0
 10
27.08524483577526
 20
144.1781378667401
 30
0.0
 10
27.08940981432824
 20
144.0184720441841
 30
0.0
  0
LINE
  5
A0
330
70
100
AcDbEntity
  8
0
 62
    18
420
        0
370
    18
100
AcDbLine
 10
27.10011619855693
 20
144.4972317463441
 30
0.0
 11
39.10011619855703
 21
144.4972317463441
 31
0.0
  0
LINE
  5
A1
330
70
100
AcDbEntity
  8
0
 62
    18
420
        0
370
    18
100
AcDbLine
 10
39.10011619855703
 20
144.0214930936441
 30
0.0
 11
39.10011619855703
 21
144.4972317463441
 31
0.0
  0
SPLINE
  5
A2
330
70
100
AcDbEntity
  8
0
 62
    18
420
        0
370
    18
100
AcDbSpline
210
0.0
220
0.0
230
1.0
 70
     8
 71
     3
 72
     8
 73
     4
 74
     0
 42
0.0000000001
 43
0.0000000001
 40
0.0
 40
0.0
 40
0.0
 40
0.0
 40
1.0
 40
1.0
 40
1.0
 40
1.0
 10
27.10011619851137
 20
144.497231746272
 30
0.0
 10
27.0789387845184
 20
144.3315268666967
 30
0.0
 10
27.07183188118014
 20
144.1643262203768
 30
0.0
 10
27.07887166446377
 20
143.9974219621035
 30
0.0
  0
SPLINE
  5
A3
330
70
100
AcDbEntity
  8
0
 62
    18
420
        0
370
    18
100
AcDbSpline
210
0.0
220
0.0
230
1.0
 70
     8
 71
     3
 72
     8
 73
     4
 74
     0
 42
0.0000000001
 43
0.0000000001
 40
0.0
 40
0.0
 40
0.0
 40
0.0
 40
1.0
 40
1.0
 40
1.0
 40
1.0
 10
27.08940981432278
 20
144.0184720441449
 30
0.0
 10
27.09004748300615
 20
144.0103599000554
 30
0.0
 10
27.09381576426887
 20
144.0028139368848
 30
0.0
 10
27.09991751467426
 20
143.9974304301219
 30
0.0
  0
LINE
  5
A4
330
70
100
AcDbEntity
  8
0
 62
    18
420
        0
370
    18
100
AcDbLine
 10
39.10011619855703
 20
143.9974304301443
 30
0.0
 11
39.10011619855703
 21
144.0214930936441
 31
0.0
  0
LINE
  5
A5
330
70
100
AcDbEntity
  8
0
 62
    18
420
        0
370
    18
100
AcDbLine
 10
39.10011619855703
 20
143.9974304301443
 30
0.0
 11
27.09991751465694
 21
143.9974304301443
 31
0.0
  0
LWPOLYLINE
  5
A6
330
70
100
AcDbEntity
  8
0
 62
    18
420
        0
370
    18
100
AcDbPolyline
 90
        5
 70
     0
 43
0.0
 10
51.10030642365707
 20
144.0184762712443
 10
50.10030656655699
 20
144.0188732110442
 10
46.10030701615686
 20
144.0202975548442
 10
42.60021175735698
 20
144.0211685625442
 10
39.10011619855703
 20
144.0214930936441
  0
LINE
  5
A7
330
70
100
AcDbEntity
  8
0
 62
    18
420
        0
370
    18
100
AcDbLine
 10
51.10031488235701
 20
143.9974304301443
 30
0.0
 11
39.10011619855703
 21
143.9974304301443
 31
0.0
  0
LINE
  5
A8
330
70
100
AcDbEntity
  8
0
 62
    18
420
        0
370
    18
100
AcDbLine
 10
39.10011619855703
 20
144.4972317463441
 30
0.0
 11
51.10011619855713
 21
144.4972317463441
 31
0.0
  0
SPLINE
  5
A9
330
70
100
AcDbEntity
  8
0
 62
    18
420
        0
370
    18
100
AcDbSpline
210
0.0
220
0.0
230
1.0
 70
     8
 71
     3
 72
     8
 73
     4
 74
     0
 42
0.0000000001
 43
0.0000000001
 40
0.0
 40
0.0
 40
0.0
 40
0.0
 40
1.0
 40
1.0
 40
1.0
 40
1.0
 10
51.10030642367471
 20
144.0184762712533
 30
0.0
 10
51.10036640731957
 20
144.1780614548503
 30
0.0
 10
51.10030299891025
 20
144.3376466609537
 30
0.0
 10
51.10011619850355
 20
144.4972317464953
 30
0.0
  0
SPLINE
  5
AA
330
70
100
AcDbEntity
  8
0
 62
    18
420
        0
370
    18
100
AcDbSpline
210
0.0
220
0.0
230
1.0
 70
     8
 71
     3
 72
     8
 73
     4
 74
     0
 42
0.0000000001
 43
0.0000000001
 40
0.0
 40
0.0
 40
0.0
 40
0.0
 40
1.0
 40
1.0
 40
1.0
 40
1.0
 10
51.60011619855683
 20
143.9972317464227
 30
0.0
 10
51.60011619851351
 20
144.2733741213074
 30
0.0
 10
51.37625857344181
 20
144.4972317463441
 30
0.0
 10
51.10011619855713
 20
144.4972317463441
 30
0.0
  0
SPLINE
  5
AB
330
70
100
AcDbEntity
  8
0
 62
    18
420
        0
370
    18
100
AcDbSpline
210
0.0
220
0.0
230
1.0
 70
     8
 71
     3
 72
     8
 73
     4
 74
     0
 42
0.0000000001
 43
0.0000000001
 40
0.0
 40
0.0
 40
0.0
 40
0.0
 40
1.0
 40
1.0
 40
1.0
 40
1.0
 10
27.10011619855693
 20
144.4972317463441
 30
0.0
 10
26.82397382364145
 20
144.4972317463441
 30
0.0
 10
26.60011619855691
 20
144.2733741212596
 30
0.0
 10
26.60011619855691
 20
143.9972317463441
 30
0.0
  0
SPLINE
  5
AC
330
70
100
AcDbEntity
  8
0
 62
    18
420
        0
370
    18
100
AcDbSpline
210
0.0
220
0.0
230
1.0
 70
     8
 71
     3
 72
    11
 73
     7
 74
     0
 42
0.0000000001
 43
0.0000000001
 40
0.0
 40
0.0
 40
0.0
 40
0.0
 40
1.0
 40
1.0
 40
1.0
 40
2.0
 40
2.0
 40
2.0
 40
2.0
 10
26.60011619855691
 20
119.9972317468172
 30
0.0
 10
26.60011619829574
 20
119.721089371902
 30
0.0
 10
26.82397382316852
 20
119.4972317466054
 30
0.0
 10
27.10011619808399
 20
119.4972317463442
 30
0.0
 10
27.10011619832046
 20
119.4972317463442
 30
0.0
 10
27.10011619832046
 20
119.4972317463442
 30
0.0
 10
27.10011619855693
 20
119.4972317463442
 30
0.0
  0
SPLINE
  5
AD
330
70
100
AcDbEntity
  8
0
 62
    18
420
        0
370
    18
100
AcDbSpline
210
0.0
220
0.0
230
1.0
 70
     8
 71
     3
 72
     8
 73
     4
 74
     0
 42
0.0000000001
 43
0.0000000001
 40
0.0
 40
0.0
 40
0.0
 40
0.0
 40
1.0
 40
1.0
 40
1.0
 40
1.0
 10
51.10011619855713
 20
119.4972317463442
 30
0.0
 10
51.37625857347228
 20
119.4972317463442
 30
0.0
 10
51.60011619855683
 20
119.7210893714288
 30
0.0
 10
51.60011619855683
 20
119.9972317463442
 30
0.0
  0
LINE
  5
AE
330
70
100
AcDbEntity
  8
0
 62
    18
420
        0
370
    18
100
AcDbLine
 10
46.60011619855697
 20
127.9972317463442
 30
0.0
 11
46.60011619855697
 21
135.9972317463442
 31
0.0
  0
LWPOLYLINE
  5
AF
330
70
100
AcDbEntity
  8
0
 62
    18
420
        0
370
    18
100
AcDbPolyline
 90
       26
 70
     0
 43
0.0
 10
39.10011619855703
 20
135.9972317463442
 10
38.57801142965698
 20
135.9630111918441
 10
38.06484001805703
 20
135.8609350514442
 10
37.56938246905712
 20
135.6927498763443
 10
37.10011619855695
 20
135.4613333614441
 10
36.66507048245708
 20
135.1706451074442
 10
36.27168907375694
 20
134.8256588710443
 10
35.92670283735703
 20
134.4322774623442
 10
35.63601458335713
 20
133.9972317463444
 10
35.40459806845697
 20
133.5279654757441
 10
35.23641289335705
 20
133.0325079267443
 10
35.13433675305695
 20
132.5193365152441
 10
35.10011619855689
 20
131.9972317463443
 10
35.13433675305695
 20
131.4751269774443
 10
35.23641289335705
 20
130.9619555659441
 10
35.40459806845697
 20
130.4664980168441
 10
35.63601458335713
 20
129.9972317463443
 10
35.92670283735703
 20
129.5621860302444
 10
36.27168907375694
 20
129.1688046215443
 10
36.66507048245708
 20
128.8238183851443
 10
37.10011619855695
 20
128.5331301311441
 10
37.56938246905712
 20
128.3017136162443
 10
38.06484001805703
 20
128.1335284411444
 10
38.57801142965698
 20
128.0314523008442
 10
39.10011619855703
 20
127.9972317463442
 10
39.10011619855703
 20
127.9972317463442
  0
LINE
  5
B0
330
70
100
AcDbEntity
  8
0
 62
    18
420
        0
370
    18
100
AcDbLine
 10
46.60011619855697
 20
131.9972317463443
 30
0.0
 11
46.60011619855697
 21
135.9972317463442
 31
0.0
  0
LINE
  5
B1
330
70
100
AcDbEntity
  8
0
 62
    18
420
        0
370
    18
100
AcDbLine
 10
46.60011619855697
 20
127.9972317463442
 30
0.0
 11
46.60011619855697
 21
131.9972317463443
 31
0.0
  0
LINE
  5
B2
330
70
100
AcDbEntity
  8
0
 62
    18
420
        0
370
    18
100
AcDbLine
 10
109.1001161985569
 20
137.5359940748442
 30
0.0
 11
109.1001161985569
 21
139.2472317463444
 31
0.0
  0
LINE
  5
B3
330
70
100
AcDbEntity
  8
0
 62
    18
420
        0
370
    18
100
AcDbLine
 10
109.1001161985569
 20
124.7472317463443
 30
0.0
 11
109.1001161985569
 21
137.5359940748442
 31
0.0
  0
LWPOLYLINE
  5
B4
330
70
100
AcDbEntity
  8
0
 62
     8
420
  8421504
370
    18
100
AcDbPolyline
 90
        4
 70
     0
 43
0.0
 10
51.12136073255692
 20
119.9970415305441
 10
51.12175761545702
 20
120.9970413877443
 10
51.12317796045714
 20
124.9970409408444
 10
51.12361860825684
 20
127.9972317463442
  0
LWPOLYLINE
  5
B5
330
70
100
AcDbEntity
  8
0
 62
     8
420
  8421504
370
    18
100
AcDbPolyline
 90
        4
 70
     0
 43
0.0
 10
51.12395770515707
 20
135.9972317463442
 10
51.12395151195697
 20
136.0442430683443
 10
51.12136072155692
 20
143.9974219733441
 10
51.12135649545699
 20
144.0079381314442
  0
LINE
  5
B6
330
70
100
AcDbEntity
  8
0
 62
     8
420
  8421504
370
    18
100
AcDbLine
 10
109.3501161985571
 20
137.7269858793442
 30
0.0
 11
109.3501161985571
 21
124.4972317463444
 31
0.0
  0
LINE
  5
B7
330
70
100
AcDbEntity
  8
0
 62
     8
420
  8421504
370
    18
100
AcDbLine
 10
109.3501161985571
 20
139.4972317463443
 30
0.0
 11
109.3501161985571
 21
137.7269858793442
 31
0.0
  0
LINE
  5
B8
330
70
100
AcDbEntity
  8
0
 62
     8
420
  8421504
370
    18
100
AcDbLine
 10
110.7185021252567
 20
124.4972317463444
 30
0.0
 11
110.7185021252567
 21
139.4972317463443
 31
0.0
  0
LINE
  5
B9
330
70
100
AcDbEntity
  8
0
 62
     8
420
  8421504
370
    18
100
AcDbLine
 10
110.9683374017571
 20
139.2563055886444
 30
0.0
 11
110.9683374017571
 21
124.7381579040443
 31
0.0
  0
LWPOLYLINE
  5
BA
330
70
100
AcDbEntity
  8
0
 62
    18
420
        0
370
    18
100
AcDbPolyline
 90
       16
 70
     0
 43
0.0
 10
160.7922403564568
 20
129.8083646628441
 10
160.7923491526569
 20
130.1553037638441
 10
160.7924112529569
 20
130.5613900538443
 10
160.7924447761567
 20
130.9699055998443
 10
160.7924895929566
 20
131.3381348679442
 10
160.7925516353574
 20
131.6374190518444
 10
160.7925806308571
 20
131.9426692654443
 10
160.7925423144568
 20
132.1889214944443
 10
160.7925379202571
 20
132.3420499270441
 10
160.7925518790568
 20
132.4924898485443
 10
160.792554823557
 20
132.6450264889443
 10
160.7924848947571
 20
132.8219238730442
 10
160.7924367035571
 20
132.9476013121441
 10
160.7923996634565
 20
133.0984290471443
 10
160.7923706765569
 20
133.4575415108442
 10
160.7923484952567
 20
133.8044077620444
  0
LWPOLYLINE
  5
BB
330
70
100
AcDbEntity
  8
0
 62
    18
420
        0
370
    18
100
AcDbPolyline
 90
        3
 70
     0
 43
0.0
 10
160.5313606065574
 20
119.9731765786443
 10
160.7221590413566
 20
124.8645669155441
 10
160.792571833357
 20
128.6198679225443
  0
LWPOLYLINE
  5
BC
330
70
100
AcDbEntity
  8
0
 62
    18
420
        0
370
    18
100
AcDbPolyline
 90
        5
 70
     0
 43
0.0
 10
160.7925724555574
 20
128.6210570003441
 10
160.7925544319575
 20
128.7744720206443
 10
160.7924552187574
 20
129.0454446413442
 10
160.7923269274569
 20
129.4113075771441
 10
160.7922125020571
 20
129.8525738342443
  0
SPLINE
  5
BD
330
70
100
AcDbEntity
  8
0
 62
    18
420
        0
370
    18
100
AcDbSpline
210
0.0
220
0.0
230
1.0
 70
     8
 71
     3
 72
     8
 73
     4
 74
     0
 42
0.0000000001
 43
0.0000000001
 40
0.0
 40
0.0
 40
0.0
 40
0.0
 40
1.0
 40
1.0
 40
1.0
 40
1.0
 10
160.0330468689912
 20
119.4972317465733
 30
0.0
 10
160.299852503669
 20
119.4972236705448
 30
0.0
 10
160.5196604408306
 20
119.7067025607173
 30
0.0
 10
160.5324841371779
 20
119.9731998394522
 30
0.0
  0
LINE
  5
BE
330
70
100
AcDbEntity
  8
0
 62
    18
420
        0
370
    18
100
AcDbLine
 10
160.7895985977565
 20
127.9972317463442
 30
0.0
 11
187.2895985977565
 21
127.9972317463442
 31
0.0
  0
LINE
  5
BF
330
70
100
AcDbEntity
  8
0
 62
    18
420
        0
370
    18
100
AcDbLine
 10
187.2895985977565
 20
135.9972317463442
 30
0.0
 11
160.7895985977565
 21
135.9972317463442
 31
0.0
  0
LINE
  5
C0
330
70
100
AcDbEntity
  8
0
 62
    18
420
        0
370
    18
100
AcDbLine
 10
160.7895985977565
 20
135.0856816905442
 30
0.0
 11
160.7790685074571
 21
135.0856816905442
 31
0.0
  0
LWPOLYLINE
  5
C1
330
70
100
AcDbEntity
  8
0
 62
    18
420
        0
370
    18
100
AcDbPolyline
 90
        7
 70
     0
 43
0.0
 10
160.5298027165565
 20
143.9974219621442
 10
160.5301604914564
 20
142.9974221048443
 10
160.5314249050566
 20
138.9974225518443
 10
160.5324497594571
 20
130.9974225153442
 10
160.5321023677571
 20
127.9502204242443
 10
160.5298027172572
 20
119.9970415192441
 10
160.5297988918569
 20
119.9865253623443
  0
LWPOLYLINE
  5
C2
330
70
100
AcDbEntity
  8
0
 62
    18
420
        0
370
    18
100
AcDbPolyline
 90
        7
 70
     0
 43
0.0
 10
160.5297988918569
 20
119.9865253623443
 10
160.4946184662575
 20
119.9872789573441
 10
160.4071073440564
 20
119.9891537851441
 10
160.2771215999571
 20
119.9919392803441
 10
160.1192880063572
 20
119.9953226534442
 10
160.0456611668574
 20
119.9969013631442
 10
160.0302542870569
 20
119.9972317519444
  0
LWPOLYLINE
  5
C3
330
70
100
AcDbEntity
  8
0
 62
    18
420
        0
370
    18
100
AcDbPolyline
 90
        4
 70
     0
 43
0.0
 10
160.0302542870569
 20
119.9972317463442
 10
160.0326708217572
 20
127.9503135162442
 10
160.0326910904567
 20
135.9033948509442
 10
160.0302542868567
 20
143.9972317463441
  0
LINE
  5
C4
330
70
100
AcDbEntity
  8
0
 62
    18
420
        0
370
    18
100
AcDbLine
 10
160.5298027165565
 20
143.9974219621442
 30
0.0
 11
160.0302542868567
 21
143.9972317463441
 31
0.0
  0
LWPOLYLINE
  5
C5
330
70
100
AcDbEntity
  8
0
 62
    18
420
        0
370
    18
100
AcDbPolyline
 90
        5
 70
     0
 43
0.0
 10
160.5306966996567
 20
119.9970330625444
 10
160.5306954279567
 20
119.9970030894441
 10
160.5302493311565
 20
119.9864951398442
 10
160.5300260885564
 20
119.9812411733442
 10
160.5298027165565
 20
119.9759872122444
  0
LINE
  5
C6
330
70
100
AcDbEntity
  8
0
 62
    18
420
        0
370
    18
100
AcDbLine
 10
160.0302542870569
 20
119.9972317463442
 30
0.0
 11
160.5298027165565
 21
119.9759872122444
 31
0.0
  0
SPLINE
  5
C7
330
70
100
AcDbEntity
  8
0
 62
    18
420
        0
370
    18
100
AcDbSpline
210
0.0
220
0.0
230
1.0
 70
     8
 71
     3
 72
     8
 73
     4
 74
     0
 42
0.0000000001
 43
0.0000000001
 40
0.0
 40
0.0
 40
0.0
 40
0.0
 40
1.0
 40
1.0
 40
1.0
 40
1.0
 10
160.5297988918171
 20
119.9865253623559
 30
0.0
 10
160.5304113991395
 20
119.9899940836035
 30
0.0
 10
160.5307118697698
 20
119.9935107106764
 30
0.0
 10
160.5306966996348
 20
119.9970330624731
 30
0.0
  0
LINE
  5
C8
330
70
100
AcDbEntity
  8
0
 62
    18
420
        0
370
    18
100
AcDbLine
 10
157.789598597757
 20
143.9972317463441
 30
0.0
 11
157.789598597757
 21
119.9972317463442
 31
0.0
  0
LINE
  5
C9
330
70
100
AcDbEntity
  8
0
 62
    18
420
        0
370
    18
100
AcDbLine
 10
160.0302542868567
 20
143.9972317463441
 30
0.0
 11
157.789598597757
 21
143.9972317463441
 31
0.0
  0
LINE
  5
CA
330
70
100
AcDbEntity
  8
0
 62
    18
420
        0
370
    18
100
AcDbLine
 10
157.789598597757
 20
119.9972317463442
 30
0.0
 11
160.0302542870569
 21
119.9972317463442
 31
0.0
  0
LINE
  5
CB
330
70
100
AcDbEntity
  8
0
 62
    18
420
        0
370
    18
100
AcDbLine
 10
157.789598597757
 20
119.4972317463442
 30
0.0
 11
157.789598597757
 21
119.9972317463442
 31
0.0
  0
LINE
  5
CC
330
70
100
AcDbEntity
  8
0
 62
    18
420
        0
370
    18
100
AcDbLine
 10
160.0302542868567
 20
119.4972317463442
 30
0.0
 11
160.0302542870569
 21
119.9972317463442
 31
0.0
  0
LINE
  5
CD
330
70
100
AcDbEntity
  8
0
 62
    18
420
        0
370
    18
100
AcDbLine
 10
160.0302542868567
 20
119.4972317463442
 30
0.0
 11
157.789598597757
 21
119.4972317463442
 31
0.0
  0
LINE
  5
CE
330
70
100
AcDbEntity
  8
0
 62
    18
420
        0
370
    18
100
AcDbLine
 10
157.789598597757
 20
143.9972317463441
 30
0.0
 11
157.789598597757
 21
144.4972317463441
 31
0.0
  0
LINE
  5
CF
330
70
100
AcDbEntity
  8
0
 62
    18
420
        0
370
    18
100
AcDbLine
 10
157.789598597757
 20
144.4972317463441
 30
0.0
 11
160.0302542870569
 21
144.4972317463441
 31
0.0
  0
LINE
  5
D0
330
70
100
AcDbEntity
  8
0
 62
    18
420
        0
370
    18
100
AcDbLine
 10
160.0302542868567
 20
143.9972317463441
 30
0.0
 11
160.0302542870569
 21
144.4972317463441
 31
0.0
  0
SPLINE
  5
D1
330
70
100
AcDbEntity
  8
0
 62
    18
420
        0
370
    18
100
AcDbSpline
210
0.0
220
0.0
230
1.0
 70
     8
 71
     3
 72
     8
 73
     4
 74
     0
 42
0.0000000001
 43
0.0000000001
 40
0.0
 40
0.0
 40
0.0
 40
0.0
 40
1.0
 40
1.0
 40
1.0
 40
1.0
 10
160.5298027165026
 20
143.9974219622014
 30
0.0
 10
160.5298224004037
 20
144.2733653849546
 30
0.0
 10
160.3061976823271
 20
144.4971070994343
 30
0.0
 10
160.0302542870248
 20
144.497231746374
 30
0.0
  0
SPLINE
  5
D2
330
70
100
AcDbEntity
  8
0
 62
    18
420
        0
370
    18
100
AcDbSpline
210
0.0
220
0.0
230
1.0
 70
     8
 71
     3
 72
     8
 73
     4
 74
     0
 42
0.0000000001
 43
0.0000000001
 40
0.0
 40
0.0
 40
0.0
 40
0.0
 40
1.0
 40
1.0
 40
1.0
 40
1.0
 10
160.0302542868503
 20
119.4972317462964
 30
0.0
 10
160.2981337029328
 20
119.4972317554541
 30
0.0
 10
160.5184207800099
 20
119.708349709118
 30
0.0
 10
160.5298027165257
 20
119.9759872122492
 30
0.0
  0
SPLINE
  5
D3
330
70
100
AcDbEntity
  8
0
 62
    18
420
        0
370
    18
100
AcDbSpline
210
0.0
220
0.0
230
1.0
 70
     8
 71
     3
 72
     8
 73
     4
 74
     0
 42
0.0000000001
 43
0.0000000001
 40
0.0
 40
0.0
 40
0.0
 40
0.0
 40
1.0
 40
1.0
 40
1.0
 40
1.0
 10
160.5306966996644
 20
119.9970330623021
 30
0.0
 10
160.6660163089927
 20
123.052703821552
 30
0.0
 10
160.7519116437494
 20
126.110363134445
 30
0.0
 10
160.7883490127688
 20
129.1688116796623
 30
0.0
  0
LINE
  5
D4
330
70
100
AcDbEntity
  8
0
 62
    18
420
        0
370
    18
100
AcDbLine
 10
160.5306966996567
 20
143.9974304301443
 30
0.0
 11
160.5298027165565
 21
143.9974219621442
 31
0.0
  0
SPLINE
  5
D5
330
70
100
AcDbEntity
  8
0
 62
    18
420
        0
370
    18
100
AcDbSpline
210
0.0
220
0.0
230
1.0
 70
     8
 71
     3
 72
     8
 73
     4
 74
     0
 42
0.0000000001
 43
0.0000000001
 40
0.0
 40
0.0
 40
0.0
 40
0.0
 40
1.0
 40
1.0
 40
1.0
 40
1.0
 10
160.7833864809475
 20
134.8256077663039
 30
0.0
 10
160.7477338063844
 20
137.8840272568933
 30
0.0
 10
160.6634932491857
 20
140.9416873174299
 30
0.0
 10
160.5306966997336
 20
143.9974304300089
 30
0.0
  0
SPLINE
  5
D6
330
70
100
AcDbEntity
  8
0
 62
    18
420
        0
370
    18
100
AcDbSpline
210
0.0
220
0.0
230
1.0
 70
     8
 71
     3
 72
     8
 73
     4
 74
     0
 42
0.0000000001
 43
0.0000000001
 40
0.0
 40
0.0
 40
0.0
 40
0.0
 40
1.0
 40
1.0
 40
1.0
 40
1.0
 10
160.5297988918364
 20
144.0184720441982
 30
0.0
 10
160.5184204364249
 20
144.2861102841609
 30
0.0
 10
160.2981342914388
 20
144.4972308290719
 30
0.0
 10
160.0302542870761
 20
144.4972317463615
 30
0.0
  0
LWPOLYLINE
  5
D7
330
70
100
AcDbEntity
  8
0
 62
    18
420
        0
370
    18
100
AcDbPolyline
 90
        7
 70
     0
 43
0.0
 10
160.5297988918569
 20
144.0184720441443
 10
160.5299624496572
 20
144.0146276677444
 10
160.5301262391569
 20
144.0107826609442
 10
160.530321686857
 20
144.0062009556442
 10
160.5305053897565
 20
144.0019011991441
 10
160.5306033548571
 20
143.9996109179443
 10
160.5306966996567
 20
143.9974304301443
  0
LINE
  5
D8
330
70
100
AcDbEntity
  8
0
 62
    18
420
        0
370
    18
100
AcDbLine
 10
160.5297988917838
 20
144.0184720441244
 30
0.0
 11
160.5315923029918
 21
144.0204753587545
 31
0.0
  0
LINE
  5
D9
330
70
100
AcDbEntity
  8
0
 62
    18
420
        0
370
    18
100
AcDbLine
 10
160.0302542870569
 20
144.4972317463441
 30
0.0
 11
160.0330596784565
 21
144.4972317463441
 31
0.0
  0
SPLINE
  5
DA
330
70
100
AcDbEntity
  8
0
 62
    18
420
        0
370
    18
100
AcDbSpline
210
0.0
220
0.0
230
1.0
 70
     8
 71
     3
 72
     8
 73
     4
 74
     0
 42
0.0000000001
 43
0.0000000001
 40
0.0
 40
0.0
 40
0.0
 40
0.0
 40
1.0
 40
1.0
 40
1.0
 40
1.0
 10
160.532470718608
 20
144.0214930936935
 30
0.0
 10
160.5195291844557
 20
144.2878898827486
 30
0.0
 10
160.2997706315973
 20
144.4972317463441
 30
0.0
 10
160.0330596784565
 20
144.4972317463441
 30
0.0
  0
LWPOLYLINE
  5
DB
330
70
100
AcDbEntity
  8
0
 62
    18
420
        0
370
    18
100
AcDbPolyline
 90
        3
 70
     0
 43
0.0
 10
160.5336385187567
 20
143.9974304301443
 10
160.5329848363573
 20
144.0109055354443
 10
160.5324707186568
 20
144.0214930936441
  0
LINE
  5
DC
330
70
100
AcDbEntity
  8
0
 62
    18
420
        0
370
    18
100
AcDbLine
 10
160.5336385187567
 20
143.9974304301443
 30
0.0
 11
160.5306966996567
 21
143.9974304301443
 31
0.0
  0
LINE
  5
DD
330
70
100
AcDbEntity
  8
0
 62
    18
420
        0
370
    18
100
AcDbLine
 10
160.7895985977565
 20
135.9972317463442
 30
0.0
 11
160.7895985977565
 21
129.2467127198442
 31
0.0
  0
LWPOLYLINE
  5
DE
330
70
100
AcDbEntity
  8
0
 62
    18
420
        0
370
    18
100
AcDbPolyline
 90
       26
 70
     0
 43
0.0
 10
187.2895985977565
 20
135.9972317463442
 10
187.8117033665571
 20
135.9630111918441
 10
188.324874778157
 20
135.8609350514442
 10
188.8203323271569
 20
135.6927498763443
 10
189.2895985977565
 20
135.4613333614441
 10
189.7246443137573
 20
135.1706451074442
 10
190.1180257224571
 20
134.8256588710443
 10
190.4630119588564
 20
134.4322774623442
 10
190.7537002128566
 20
133.9972317463444
 10
190.9851167277571
 20
133.5279654757441
 10
191.1533019028564
 20
133.0325079267443
 10
191.2553780432566
 20
132.5193365152441
 10
191.2895985977566
 20
131.9972317463443
 10
191.2553780432566
 20
131.4751269774443
 10
191.1533019028564
 20
130.9619555659441
 10
190.9851167277571
 20
130.4664980168441
 10
190.7537002128566
 20
129.9972317463443
 10
190.4630119588564
 20
129.5621860302444
 10
190.1180257224571
 20
129.1688046215443
 10
189.7246443137573
 20
128.8238183851443
 10
189.2895985977565
 20
128.5331301311441
 10
188.8203323271569
 20
128.3017136162443
 10
188.324874778157
 20
128.1335284411444
 10
187.8117033665571
 20
128.0314523008442
 10
187.2895985977565
 20
127.9972317463442
 10
187.2895985977565
 20
127.9972317463442
  0
SPLINE
  5
DF
330
70
100
AcDbEntity
  8
0
 62
    18
420
        0
370
    18
100
AcDbSpline
210
0.0
220
0.0
230
1.0
 70
     8
 71
     3
 72
    14
 73
    10
 74
     0
 42
0.0000000001
 43
0.0000000001
 40
0.0
 40
0.0
 40
0.0
 40
0.0
 40
1.0
 40
1.0
 40
1.0
 40
2.0
 40
2.0
 40
2.0
 40
3.0
 40
3.0
 40
3.0
 40
3.0
 10
180.9453098275325
 20
127.9972317463445
 30
0.0
 10
183.154448826855
 20
124.4933778100264
 30
0.0
 10
187.7857446614382
 20
123.4438039767962
 30
0.0
 10
191.2895985977566
 20
125.6529429761194
 30
0.0
 10
194.793452534075
 20
127.8620819754423
 30
0.0
 10
195.8430263673056
 20
132.4933778100261
 30
0.0
 10
193.6338873679817
 20
135.9972317463442
 30
0.0
 10
193.2238785187427
 20
136.6475353808236
 30
0.0
 10
192.7163240094343
 20
137.2309353470198
 30
0.0
 10
192.1290115348114
 20
137.7269858793481
 30
0.0
  0
SPLINE
  5
E0
330
70
100
AcDbEntity
  8
0
 62
    18
420
        0
370
    18
100
AcDbSpline
210
0.0
220
0.0
230
1.0
 70
     8
 71
     3
 72
    11
 73
     7
 74
     0
 42
0.0000000001
 43
0.0000000001
 40
0.0
 40
0.0
 40
0.0
 40
0.0
 40
1.0
 40
1.0
 40
1.0
 40
2.0
 40
2.0
 40
2.0
 40
2.0
 10
192.1290115348114
 20
137.7269858793481
 30
0.0
 10
188.9645557068734
 20
140.399719842617
 30
0.0
 10
184.2325784280227
 20
140.0011005113363
 30
0.0
 10
181.5598444647531
 20
136.8366446833983
 30
0.0
 10
181.3358173721019
 20
136.5714017341557
 30
0.0
 10
181.1304786449611
 20
136.2909228585976
 30
0.0
 10
180.9453098275325
 20
135.9972317463442
 30
0.0
  0
LINE
  5
E1
330
70
100
AcDbEntity
  8
0
 62
     8
420
  8421504
370
    18
100
AcDbLine
 10
160.5323241634953
 20
119.9731389928935
 30
0.0
 11
160.5306535808142
 21
119.9750470475521
 31
0.0
  0
SPLINE
  5
E2
330
70
100
AcDbEntity
  8
0
 62
     8
420
  8421504
370
    18
100
AcDbSpline
210
0.0
220
0.0
230
1.0
 70
     8
 71
     3
 72
    11
 73
     7
 74
     0
 42
0.0000000001
 43
0.0000000001
 40
0.0
 40
0.0
 40
0.0
 40
0.0
 40
1.0
 40
1.0
 40
1.0
 40
2.0
 40
2.0
 40
2.0
 40
2.0
 10
191.9676977702424
 20
137.5359940749145
 30
0.0
 10
188.9087238032365
 20
140.1196369060742
 30
0.0
 10
184.3344791003471
 20
139.7343048858365
 30
0.0
 10
181.750836269187
 20
136.6753309188299
 30
0.0
 10
181.5684522474975
 20
136.4593924123091
 30
0.0
 10
181.3988524051939
 20
136.2329728461717
 30
0.0
 10
181.2429052865334
 20
135.9972317463451
 30
0.0
  0
SPLINE
  5
E3
330
70
100
AcDbEntity
  8
0
 62
     8
420
  8421504
370
    18
100
AcDbSpline
210
0.0
220
0.0
230
1.0
 70
     8
 71
     3
 72
    14
 73
    10
 74
     0
 42
0.0000000001
 43
0.0000000001
 40
0.0
 40
0.0
 40
0.0
 40
0.0
 40
1.0
 40
1.0
 40
1.0
 40
2.0
 40
2.0
 40
2.0
 40
3.0
 40
3.0
 40
3.0
 40
3.0
 10
181.2429052865334
 20
127.9972317463436
 30
0.0
 10
183.4520442858572
 20
124.6577352436511
 30
0.0
 10
187.9501020950654
 20
123.7413994357974
 30
0.0
 10
191.2895985977579
 20
125.9505384351209
 30
0.0
 10
194.6290951004504
 20
128.1596774344444
 30
0.0
 10
195.5454309083034
 20
132.6577352436526
 30
0.0
 10
193.3362919089809
 20
135.9972317463451
 30
0.0
 10
192.9556352977003
 20
136.57266019267
 30
0.0
 10
192.494789394913
 20
137.0908067303571
 30
0.0
 10
191.9676977702424
 20
137.5359940749145
 30
0.0
  0
LWPOLYLINE
  5
E4
330
70
100
AcDbEntity
  8
0
 62
    18
420
        0
370
    18
100
AcDbPolyline
 90
        3
 70
     0
 43
0.0
 10
42.26204501835685
 20
87.29336508984422
 10
45.34625499755692
 20
87.33659827424453
 10
47.91456876445713
 20
87.43227293644435
  0
LINE
  5
E5
330
70
100
AcDbEntity
  8
0
 62
    18
420
        0
370
    18
100
AcDbLine
 10
49.58555074755698
 20
87.49452025174447
 30
0.0
 11
51.12416435595694
 21
87.55183658874443
 31
0.0
  0
LWPOLYLINE
  5
E6
330
70
100
AcDbEntity
  8
0
 62
    18
420
        0
370
    18
100
AcDbPolyline
 90
        3
 70
     0
 43
0.0
 10
27.07606373535688
 20
87.55168454474473
 10
32.19968628305705
 20
87.35416876284444
 10
35.9639123786571
 20
87.29336508984422
  0
SPLINE
  5
E7
330
70
100
AcDbEntity
  8
0
 62
    18
420
        0
370
    18
100
AcDbSpline
210
0.0
220
0.0
230
1.0
 70
     8
 71
     3
 72
     8
 73
     4
 74
     0
 42
0.0000000001
 43
0.0000000001
 40
0.0
 40
0.0
 40
0.0
 40
0.0
 40
1.0
 40
1.0
 40
1.0
 40
1.0
 10
51.12397672783483
 20
87.55047133320225
 30
0.0
 10
51.39054466967765
 20
87.56320674700399
 30
0.0
 10
51.60012427636476
 20
87.7830448298762
 30
0.0
 10
51.60011619832806
 20
88.04991681851012
 30
0.0
  0
SPLINE
  5
E8
330
70
100
AcDbEntity
  8
0
 62
    18
420
        0
370
    18
100
AcDbSpline
210
0.0
220
0.0
230
1.0
 70
     8
 71
     3
 72
     8
 73
     4
 74
     0
 42
0.0000000001
 43
0.0000000001
 40
0.0
 40
0.0
 40
0.0
 40
0.0
 40
1.0
 40
1.0
 40
1.0
 40
1.0
 10
26.60011619878599
 20
88.04991681853771
 30
0.0
 10
26.60010812274305
 20
87.78311118384902
 30
0.0
 10
26.80958701291976
 20
87.56330324667066
 30
0.0
 10
27.07608429166488
 20
87.55047955032273
 30
0.0
  0
LINE
  5
E9
330
70
100
AcDbEntity
  8
0
 62
    18
420
        0
370
    18
100
AcDbLine
 10
35.10011619855689
 20
87.29336508984422
 30
0.0
 11
35.10011619855689
 21
56.79336508984412
 31
0.0
  0
LINE
  5
EA
330
70
100
AcDbEntity
  8
0
 62
    18
420
        0
370
    18
100
AcDbLine
 10
43.10011619855685
 20
64.7933650898444
 30
0.0
 11
43.10011619855685
 21
87.29336508984422
 31
0.0
  0
LINE
  5
EB
330
70
100
AcDbEntity
  8
0
 62
    18
420
        0
370
    18
100
AcDbLine
 10
46.60011619855697
 20
64.7933650898444
 30
0.0
 11
43.10011619855685
 21
64.7933650898444
 31
0.0
  0
LINE
  5
EC
330
70
100
AcDbEntity
  8
0
 62
    18
420
        0
370
    18
100
AcDbLine
 10
35.10011619855689
 20
56.79336508984412
 30
0.0
 11
46.60011619855697
 21
56.79336508984412
 31
0.0
  0
LINE
  5
ED
330
70
100
AcDbEntity
  8
0
 62
    18
420
        0
370
    18
100
AcDbLine
 10
109.1001161985569
 20
64.7933650898444
 30
0.0
 11
46.60011619855697
 21
64.7933650898444
 31
0.0
  0
LINE
  5
EE
330
70
100
AcDbEntity
  8
0
 62
    18
420
        0
370
    18
100
AcDbLine
 10
46.60011619855697
 20
56.79336508984412
 30
0.0
 11
109.1001161985569
 21
56.79336508984412
 31
0.0
  0
LINE
  5
EF
330
70
100
AcDbEntity
  8
0
 62
    18
420
        0
370
    18
100
AcDbLine
 10
110.7185021252567
 20
68.2933650898442
 30
0.0
 11
109.3501161985571
 21
68.2933650898442
 31
0.0
  0
LINE
  5
F0
330
70
100
AcDbEntity
  8
0
 62
    18
420
        0
370
    18
100
AcDbLine
 10
109.3501161985571
 20
53.29336508984432
 30
0.0
 11
110.7185021252567
 21
53.29336508984432
 31
0.0
  0
SPLINE
  5
F1
330
70
100
AcDbEntity
  8
0
 62
    18
420
        0
370
    18
100
AcDbSpline
210
0.0
220
0.0
230
1.0
 70
     8
 71
     3
 72
     8
 73
     4
 74
     0
 42
0.0000000001
 43
0.0000000001
 40
0.0
 40
0.0
 40
0.0
 40
0.0
 40
1.0
 40
1.0
 40
1.0
 40
1.0
 10
110.7185021252567
 20
53.29336508984432
 30
0.0
 10
110.8530421562372
 20
53.29336508984432
 30
0.0
 10
110.9634542216631
 20
53.39983986417857
 30
0.0
 10
110.9683374017609
 20
53.53429124754132
 30
0.0
  0
SPLINE
  5
F2
330
70
100
AcDbEntity
  8
0
 62
    18
420
        0
370
    18
100
AcDbSpline
210
0.0
220
0.0
230
1.0
 70
     8
 71
     3
 72
     8
 73
     4
 74
     0
 42
0.0000000001
 43
0.0000000001
 40
0.0
 40
0.0
 40
0.0
 40
0.0
 40
1.0
 40
1.0
 40
1.0
 40
1.0
 10
110.9683374017609
 20
68.05243893214655
 30
0.0
 10
110.9634542216631
 20
68.18689031551058
 30
0.0
 10
110.8530421562372
 20
68.2933650898442
 30
0.0
 10
110.7185021252567
 20
68.2933650898442
 30
0.0
  0
SPLINE
  5
F3
330
70
100
AcDbEntity
  8
0
 62
    18
420
        0
370
    18
100
AcDbSpline
210
0.0
220
0.0
230
1.0
 70
     8
 71
     3
 72
     8
 73
     4
 74
     0
 42
0.0000000001
 43
0.0000000001
 40
0.0
 40
0.0
 40
0.0
 40
0.0
 40
1.0
 40
1.0
 40
1.0
 40
1.0
 10
109.3501161985571
 20
68.2933650898442
 30
0.0
 10
109.2120450110992
 20
68.2933650898442
 30
0.0
 10
109.1001161985569
 20
68.18143627730162
 30
0.0
 10
109.1001161985569
 20
68.04336508984403
 30
0.0
  0
SPLINE
  5
F4
330
70
100
AcDbEntity
  8
0
 62
    18
420
        0
370
    18
100
AcDbSpline
210
0.0
220
0.0
230
1.0
 70
     8
 71
     3
 72
     8
 73
     4
 74
     0
 42
0.0000000001
 43
0.0000000001
 40
0.0
 40
0.0
 40
0.0
 40
0.0
 40
1.0
 40
1.0
 40
1.0
 40
1.0
 10
109.1001161985569
 20
53.54336508984449
 30
0.0
 10
109.1001161985569
 20
53.4052939023869
 30
0.0
 10
109.2120450110992
 20
53.29336508984432
 30
0.0
 10
109.3501161985571
 20
53.29336508984432
 30
0.0
  0
SPLINE
  5
F5
330
70
100
AcDbEntity
  8
0
 62
    18
420
        0
370
    18
100
AcDbSpline
210
0.0
220
0.0
230
1.0
 70
     8
 71
     3
 72
     8
 73
     4
 74
     0
 42
0.0000000001
 43
0.0000000001
 40
0.0
 40
0.0
 40
0.0
 40
0.0
 40
1.0
 40
1.0
 40
1.0
 40
1.0
 10
110.9683374018142
 20
53.53429124769405
 30
0.0
 10
111.1440424641379
 20
58.37207896368318
 30
0.0
 10
111.1440424641379
 20
63.21465121600597
 30
0.0
 10
110.9683374018142
 20
68.05243893199509
 30
0.0
  0
LWPOLYLINE
  5
F6
330
70
100
AcDbEntity
  8
0
 62
    18
420
        0
370
    18
100
AcDbPolyline
 90
        5
 70
     0
 43
0.0
 10
27.09991751465694
 20
87.5522669878446
 10
27.09988754165714
 20
87.55226825954451
 10
27.08937959205692
 20
87.55271435634412
 10
27.08412562555686
 20
87.55293759894419
 10
27.07887166445703
 20
87.55316097094416
  0
LINE
  5
F7
330
70
100
AcDbEntity
  8
0
 62
    18
420
        0
370
    18
100
AcDbLine
 10
27.07887166445703
 20
87.55316097094416
 30
0.0
 11
27.10011619855693
 21
88.05270940044438
 31
0.0
  0
LWPOLYLINE
  5
F8
330
70
100
AcDbEntity
  8
0
 62
    18
420
        0
370
    18
100
AcDbPolyline
 90
       11
 70
     0
 43
0.0
 10
27.08940981435711
 20
87.55316479574444
 10
27.08963262105712
 20
87.56356648104446
 10
27.09016340925713
 20
87.58834522164423
 10
27.09095764455707
 20
87.62541980044458
 10
27.09203823695702
 20
87.67585634404424
 10
27.09331470105711
 20
87.73542764584457
 10
27.09482373205693
 20
87.80584208834435
 10
27.09643912035711
 20
87.88120674614438
 10
27.09820710495709
 20
87.96367568214385
 10
27.09978581445696
 20
88.03730252134462
 10
27.10011619855693
 20
88.05270940044438
  0
SPLINE
  5
F9
330
70
100
AcDbEntity
  8
0
 62
    18
420
        0
370
    18
100
AcDbSpline
210
0.0
220
0.0
230
1.0
 70
     8
 71
     3
 72
     8
 73
     4
 74
     0
 42
0.0000000001
 43
0.0000000001
 40
0.0
 40
0.0
 40
0.0
 40
0.0
 40
1.0
 40
1.0
 40
1.0
 40
1.0
 10
27.0894098143616
 20
87.55316479572135
 30
0.0
 10
27.09287867075397
 20
87.55255332203885
 30
0.0
 10
27.09639520508496
 20
87.55225285932263
 30
0.0
 10
27.09991751471341
 20
87.55226698785488
 30
0.0
  0
LWPOLYLINE
  5
FA
330
70
100
AcDbEntity
  8
0
 62
    18
420
        0
370
    18
100
AcDbPolyline
 90
        6
 70
     0
 43
0.0
 10
39.10011619855703
 20
87.5504929688445
 10
38.10011619855699
 20
87.5505167770442
 10
34.1001162468569
 20
87.55104902684434
 10
30.60002104845694
 20
87.55197185974386
 10
27.09992597335689
 20
87.55316097044428
 10
27.08940981435711
 20
87.55316479574444
  0
LWPOLYLINE
  5
FB
330
70
100
AcDbEntity
  8
0
 62
    18
420
        0
370
    18
100
AcDbPolyline
 90
        4
 70
     0
 43
0.0
 10
27.10011619855693
 20
88.05270940044438
 10
32.7946748067571
 20
88.05081032034438
 10
35.94739547055703
 20
88.05014586924434
 10
39.10011619855703
 20
88.04990400904415
  0
LINE
  5
FC
330
70
100
AcDbEntity
  8
0
 62
    18
420
        0
370
    18
100
AcDbLine
 10
39.10011619855703
 20
87.5504929688445
 30
0.0
 11
39.10011619855703
 21
88.04990400904415
 31
0.0
  0
LINE
  5
FD
330
70
100
AcDbEntity
  8
0
 62
    18
420
        0
370
    18
100
AcDbLine
 10
51.10011619855713
 20
90.29336508984433
 30
0.0
 11
51.60011619855683
 21
90.29336508984433
 31
0.0
  0
LINE
  5
FE
330
70
100
AcDbEntity
  8
0
 62
    18
420
        0
370
    18
100
AcDbLine
 10
51.60011619855683
 20
90.29336508984433
 30
0.0
 11
51.60011619855683
 21
88.05270940044438
 31
0.0
  0
LINE
  5
FF
330
70
100
AcDbEntity
  8
0
 62
    18
420
        0
370
    18
100
AcDbLine
 10
51.10011619855713
 20
88.05270940044438
 30
0.0
 11
51.60011619855683
 21
88.05270940044438
 31
0.0
  0
LINE
  5
100
330
70
100
AcDbEntity
  8
0
 62
    18
420
        0
370
    18
100
AcDbLine
 10
51.10011619855713
 20
88.05270940044438
 30
0.0
 11
51.10011619855713
 21
90.29336508984433
 31
0.0
  0
LWPOLYLINE
  5
101
330
70
100
AcDbEntity
  8
0
 62
    18
420
        0
370
    18
100
AcDbPolyline
 90
        4
 70
     0
 43
0.0
 10
39.10011619855703
 20
88.04990400904415
 10
44.79469424735687
 20
88.05065369384413
 10
47.94740525815708
 20
88.05157622964468
 10
51.10011619855713
 20
88.05270940044438
  0
LINE
  5
102
330
70
100
AcDbEntity
  8
0
 62
    18
420
        0
370
    18
100
AcDbLine
 10
27.10011619855693
 20
90.29336508984433
 30
0.0
 11
27.10011619855693
 21
88.05270940044438
 31
0.0
  0
LINE
  5
103
330
70
100
AcDbEntity
  8
0
 62
    18
420
        0
370
    18
100
AcDbLine
 10
51.10011619855713
 20
90.29336508984433
 30
0.0
 11
27.10011619855693
 21
90.29336508984433
 31
0.0
  0
LINE
  5
104
330
70
100
AcDbEntity
  8
0
 62
    18
420
        0
370
    18
100
AcDbLine
 10
26.60011619855691
 20
88.0527094006446
 30
0.0
 11
27.10011619855693
 21
88.05270940044438
 31
0.0
  0
LINE
  5
105
330
70
100
AcDbEntity
  8
0
 62
    18
420
        0
370
    18
100
AcDbLine
 10
26.60011619855691
 20
88.0527094006446
 30
0.0
 11
26.60011619855691
 21
90.29336508984433
 31
0.0
  0
LINE
  5
106
330
70
100
AcDbEntity
  8
0
 62
    18
420
        0
370
    18
100
AcDbLine
 10
26.60011619855691
 20
90.29336508984433
 30
0.0
 11
27.10011619855693
 21
90.29336508984433
 31
0.0
  0
LWPOLYLINE
  5
107
330
70
100
AcDbEntity
  8
0
 62
    18
420
        0
370
    18
100
AcDbPolyline
 90
        5
 70
     0
 43
0.0
 10
51.10030642365707
 20
87.55316097044428
 10
50.10030656655699
 20
87.55280278274447
 10
46.10030701615686
 20
87.55153477914431
 10
42.60021175735698
 20
87.55077353714442
 10
39.10011619855703
 20
87.5504929688445
  0
LINE
  5
108
330
70
100
AcDbEntity
  8
0
 62
    18
420
        0
370
    18
100
AcDbLine
 10
51.10030642365707
 20
87.55316097044428
 30
0.0
 11
51.10011619855713
 21
88.05270940044438
 31
0.0
  0
SPLINE
  5
109
330
70
100
AcDbEntity
  8
0
 62
    18
420
        0
370
    18
100
AcDbSpline
210
0.0
220
0.0
230
1.0
 70
     8
 71
     3
 72
     8
 73
     4
 74
     0
 42
0.0000000001
 43
0.0000000001
 40
0.0
 40
0.0
 40
0.0
 40
0.0
 40
1.0
 40
1.0
 40
1.0
 40
1.0
 10
51.10030642364166
 20
87.55316097041347
 30
0.0
 10
51.37624984291622
 20
87.55314129177362
 30
0.0
 10
51.59999155173044
 20
87.77676600861049
 30
0.0
 10
51.60011619847116
 20
88.05270940043412
 30
0.0
  0
SPLINE
  5
10A
330
70
100
AcDbEntity
  8
0
 62
    18
420
        0
370
    18
100
AcDbSpline
210
0.0
220
0.0
230
1.0
 70
     8
 71
     3
 72
     8
 73
     4
 74
     0
 42
0.0000000001
 43
0.0000000001
 40
0.0
 40
0.0
 40
0.0
 40
0.0
 40
1.0
 40
1.0
 40
1.0
 40
1.0
 10
26.60011619850942
 20
88.05270940065101
 30
0.0
 10
26.60011620766679
 20
87.78482998456849
 30
0.0
 10
26.8112341613307
 20
87.5645429074914
 30
0.0
 10
27.07887166446184
 20
87.5531609709756
 30
0.0
  0
SPLINE
  5
10B
330
70
100
AcDbEntity
  8
0
 62
    18
420
        0
370
    18
100
AcDbSpline
210
0.0
220
0.0
230
1.0
 70
     8
 71
     3
 72
     8
 73
     4
 74
     0
 42
0.0000000001
 43
0.0000000001
 40
0.0
 40
0.0
 40
0.0
 40
0.0
 40
1.0
 40
1.0
 40
1.0
 40
1.0
 10
41.92851361371029
 20
87.29703818313954
 30
0.0
 10
44.986944665467
 20
87.33327306468286
 30
0.0
 10
48.04460180120193
 20
87.41836018693671
 30
0.0
 10
51.10031488224728
 20
87.55226698780354
 30
0.0
  0
LWPOLYLINE
  5
10C
330
70
100
AcDbEntity
  8
0
 62
    18
420
        0
370
    18
100
AcDbPolyline
 90
        7
 70
     0
 43
0.0
 10
51.12135649545699
 20
87.55316479564433
 10
51.11751211985696
 20
87.55300123784412
 10
51.11366711395704
 20
87.55283744844442
 10
51.10908540895709
 20
87.55264200074435
 10
51.10478565275704
 20
87.55245829784426
 10
51.10249537075702
 20
87.55236033264415
 10
51.10031488235701
 20
87.5522669878446
  0
SPLINE
  5
10D
330
70
100
AcDbEntity
  8
0
 62
    18
420
        0
370
    18
100
AcDbSpline
210
0.0
220
0.0
230
1.0
 70
     8
 71
     3
 72
     8
 73
     4
 74
     0
 42
0.0000000001
 43
0.0000000001
 40
0.0
 40
0.0
 40
0.0
 40
0.0
 40
1.0
 40
1.0
 40
1.0
 40
1.0
 10
27.09991751458828
 20
87.55226698786835
 30
0.0
 10
30.15566062734632
 20
87.41947043908753
 30
0.0
 10
33.21332068802825
 20
87.33522988188431
 30
0.0
 10
36.27174017875957
 20
87.29957720664238
 30
0.0
  0
LINE
  5
10E
330
70
100
AcDbEntity
  8
0
 62
    18
420
        0
370
    18
100
AcDbLine
 10
39.10011619855703
 20
87.54932516874459
 30
0.0
 11
39.10011619855703
 21
87.5504929688445
 31
0.0
  0
LWPOLYLINE
  5
10F
330
70
100
AcDbEntity
  8
0
 62
    18
420
        0
370
    18
100
AcDbPolyline
 90
        5
 70
     0
 43
0.0
 10
39.10011619855703
 20
87.54932516874459
 10
35.97511619855684
 20
87.54957542474441
 10
32.85011626765705
 20
87.55026273624439
 10
29.97501686975697
 20
87.55117906874417
 10
27.09991751465694
 20
87.5522669878446
  0
LINE
  5
110
330
70
100
AcDbEntity
  8
0
 62
    18
420
        0
370
    18
100
AcDbLine
 10
51.10031488235701
 20
87.5522669878446
 30
0.0
 11
51.10030642365707
 21
87.55316097044428
 31
0.0
  0
LWPOLYLINE
  5
111
330
70
100
AcDbEntity
  8
0
 62
    18
420
        0
370
    18
100
AcDbPolyline
 90
        5
 70
     0
 43
0.0
 10
51.10031488235701
 20
87.5522669878446
 10
47.97531509795711
 20
87.55109125414419
 10
44.85031524375703
 20
87.55012812684439
 10
41.9752157703569
 20
87.54953793234415
 10
39.10011619855703
 20
87.54932516874459
  0
SPLINE
  5
112
330
70
100
AcDbEntity
  8
0
 62
    18
420
        0
370
    18
100
AcDbSpline
210
0.0
220
0.0
230
1.0
 70
     8
 71
     3
 72
     8
 73
     4
 74
     0
 42
0.0000000001
 43
0.0000000001
 40
0.0
 40
0.0
 40
0.0
 40
0.0
 40
1.0
 40
1.0
 40
1.0
 40
1.0
 10
51.12135649544223
 20
87.55316479570465
 30
0.0
 10
51.38899479801263
 20
87.56454311295573
 30
0.0
 10
51.6001154214256
 20
87.78482933942866
 30
0.0
 10
51.60011619853436
 20
88.05270940047391
 30
0.0
  0
LINE
  5
113
330
70
100
AcDbEntity
  8
0
 62
    18
420
        0
370
    18
100
AcDbLine
 10
43.10011619855685
 20
64.7933650898444
 30
0.0
 11
35.10011619855689
 21
56.79336508984412
 31
0.0
  0
LINE
  5
114
330
70
100
AcDbEntity
  8
0
 62
    18
420
        0
370
    18
100
AcDbLine
 10
41.93404018465684
 20
87.29336508984422
 30
0.0
 11
36.2661922123571
 21
87.29336508984422
 31
0.0
  0
LINE
  5
115
330
70
100
AcDbEntity
  8
0
 62
    18
420
        0
370
    18
100
AcDbLine
 10
35.95267430915689
 20
87.29336508984422
 30
0.0
 11
35.10011619855689
 21
87.29336508984422
 31
0.0
  0
LINE
  5
116
330
70
100
AcDbEntity
  8
0
 62
    18
420
        0
370
    18
100
AcDbLine
 10
46.60011619855697
 20
60.79336508984425
 30
0.0
 11
46.60011619855697
 21
64.7933650898444
 31
0.0
  0
LINE
  5
117
330
70
100
AcDbEntity
  8
0
 62
    18
420
        0
370
    18
100
AcDbLine
 10
46.60011619855697
 20
56.79336508984412
 30
0.0
 11
46.60011619855697
 21
60.79336508984425
 31
0.0
  0
LINE
  5
118
330
70
100
AcDbEntity
  8
0
 62
    18
420
        0
370
    18
100
AcDbLine
 10
46.60011619855697
 20
56.79336508984412
 30
0.0
 11
46.60011619855697
 21
64.7933650898444
 31
0.0
  0
LINE
  5
119
330
70
100
AcDbEntity
  8
0
 62
    18
420
        0
370
    18
100
AcDbLine
 10
109.1001161985569
 20
56.11526591734423
 30
0.0
 11
109.1001161985569
 21
68.04336508984403
 31
0.0
  0
LINE
  5
11A
330
70
100
AcDbEntity
  8
0
 62
    18
420
        0
370
    18
100
AcDbLine
 10
109.1001161985569
 20
53.54336508984449
 30
0.0
 11
109.1001161985569
 21
56.11526591734423
 31
0.0
  0
LWPOLYLINE
  5
11B
330
70
100
AcDbEntity
  8
0
 62
     8
420
  8421504
370
    18
100
AcDbPolyline
 90
        5
 70
     0
 43
0.0
 10
51.12420894925695
 20
87.55063952634438
 10
51.12435294655702
 20
87.5505139280442
 10
51.12395151195697
 20
87.55086131974417
 10
51.12136072155692
 20
87.55316097024406
 10
51.12135649545699
 20
87.55316479564433
  0
LINE
  5
11C
330
70
100
AcDbEntity
  8
0
 62
     8
420
  8421504
370
    18
100
AcDbLine
 10
27.0760234495159
 20
87.55063952796017
 30
0.0
 11
27.07793150116654
 21
87.55231010805774
 31
0.0
  0
LINE
  5
11D
330
70
100
AcDbEntity
  8
0
 62
     8
420
  8421504
370
    18
100
AcDbLine
 10
110.7185021252567
 20
53.29336508984432
 30
0.0
 11
110.7185021252567
 21
68.2933650898442
 31
0.0
  0
LINE
  5
11E
330
70
100
AcDbEntity
  8
0
 62
     8
420
  8421504
370
    18
100
AcDbLine
 10
109.3501161985571
 20
55.95395215274442
 30
0.0
 11
109.3501161985571
 21
53.29336508984432
 31
0.0
  0
LINE
  5
11F
330
70
100
AcDbEntity
  8
0
 62
     8
420
  8421504
370
    18
100
AcDbLine
 10
109.3501161985571
 20
68.2933650898442
 30
0.0
 11
109.3501161985571
 21
55.95395215274442
 31
0.0
  0
LINE
  5
120
330
70
100
AcDbEntity
  8
0
 62
     8
420
  8421504
370
    18
100
AcDbLine
 10
110.9683374017571
 20
68.05243893214397
 30
0.0
 11
110.9683374017571
 21
53.53429124754454
 31
0.0
  0
SPLINE
  5
121
330
70
100
AcDbEntity
  8
0
 62
    18
420
        0
370
    18
100
AcDbSpline
210
0.0
220
0.0
230
1.0
 70
     8
 71
     3
 72
     8
 73
     4
 74
     0
 42
0.0000000001
 43
0.0000000001
 40
0.0
 40
0.0
 40
0.0
 40
0.0
 40
1.0
 40
1.0
 40
1.0
 40
1.0
 10
142.5435084494413
 20
10.94790131591802
 30
0.0
 10
142.6956412051216
 20
10.86724212609019
 30
0.0
 10
142.8785731258419
 20
10.87053940519103
 30
0.0
 10
143.0277003029163
 20
10.956628692054
 30
0.0
  0
SPLINE
  5
122
330
70
100
AcDbEntity
  8
0
 62
    18
420
        0
370
    18
100
AcDbSpline
210
0.0
220
0.0
230
1.0
 70
     8
 71
     3
 72
     8
 73
     4
 74
     0
 42
0.0000000001
 43
0.0000000001
 40
0.0
 40
0.0
 40
0.0
 40
0.0
 40
1.0
 40
1.0
 40
1.0
 40
1.0
 10
125.5571781880977
 20
41.21655438163422
 30
0.0
 10
125.4025172029668
 20
41.12727049537946
 30
0.0
 10
125.3072167735551
 20
40.96227706649131
 30
0.0
 10
125.3071578984293
 20
40.78369479077497
 30
0.0
  0
LINE
  5
123
330
70
100
AcDbEntity
  8
0
 62
    18
420
        0
370
    18
100
AcDbLine
 10
142.5399020208571
 20
10.95186955644442
 30
0.0
 11
142.5451804284569
 21
10.94903827104413
 31
0.0
  0
LWPOLYLINE
  5
124
330
70
100
AcDbEntity
  8
0
 62
    18
420
        0
370
    18
100
AcDbPolyline
 90
        3
 70
     0
 43
0.0
 10
129.3048134229569
 20
18.58861939264442
 10
129.5273046817568
 20
18.46008968364427
 10
142.5339730601571
 20
10.95408686184426
  0
LWPOLYLINE
  5
125
330
70
100
AcDbEntity
  8
0
 62
    18
420
        0
370
    18
100
AcDbPolyline
 90
        3
 70
     0
 43
0.0
 10
125.3071955170569
 20
40.78370672474398
 10
125.3058317473566
 20
36.19667744134453
 10
125.307425176657
 20
25.51833036634435
  0
LINE
  5
126
330
70
100
AcDbEntity
  8
0
 62
    18
420
        0
370
    18
100
AcDbLine
 10
143.0277003028572
 20
10.95662869214447
 30
0.0
 11
144.6120831349569
 21
11.87127343234453
 31
0.0
  0
LINE
  5
127
330
70
100
AcDbEntity
  8
0
 62
    18
420
        0
370
    18
100
AcDbLine
 10
127.141561020157
 20
42.13119912184455
 30
0.0
 11
125.5571781881567
 21
41.21655438164449
 31
0.0
  0
LINE
  5
128
330
70
100
AcDbEntity
  8
0
 62
    18
420
        0
370
    18
100
AcDbLine
 10
122.3203103567572
 20
15.36188165784445
 30
0.0
 11
119.0168469631567
 21
17.26893048234419
 31
0.0
  0
LINE
  5
129
330
70
100
AcDbEntity
  8
0
 62
    18
420
        0
370
    18
100
AcDbLine
 10
111.0174971020571
 20
12.64950277304442
 30
0.0
 11
118.3206354262571
 21
8.433490758844474
 31
0.0
  0
LINE
  5
12A
330
70
100
AcDbEntity
  8
0
 62
    18
420
        0
370
    18
100
AcDbLine
 10
131.7556642687571
 20
29.2408195588442
 30
0.0
 11
111.0174971020571
 21
17.26893048234419
 31
0.0
  0
LINE
  5
12B
330
70
100
AcDbEntity
  8
0
 62
    18
420
        0
370
    18
100
AcDbLine
 10
123.0178222243572
 20
14.95921662764425
 30
0.0
 11
135.7553391993572
 21
22.31242865984422
 31
0.0
  0
LINE
  5
12C
330
70
100
AcDbEntity
  8
0
 62
    18
420
        0
370
    18
100
AcDbLine
 10
163.442248932157
 20
-8.377308178855528
 30
0.0
 11
122.3203103567572
 21
15.36188165784445
 31
0.0
  0
LINE
  5
12D
330
70
100
AcDbEntity
  8
0
 62
    18
420
        0
370
    18
100
AcDbLine
 10
118.3206354262571
 20
8.433490758844474
 30
0.0
 11
159.4432332634568
 21
-15.30607966165583
 31
0.0
  0
LWPOLYLINE
  5
12E
330
70
100
AcDbEntity
  8
0
 62
    18
420
        0
370
    18
100
AcDbPolyline
 90
       13
 70
     0
 43
0.0
 10
163.2403525211566
 20
-21.13534775985545
 10
163.3429105795568
 20
-21.14407411975575
 10
163.8742860414567
 20
-21.10816182725567
 10
164.4271673805576
 20
-20.99313325535595
 10
164.9950662174571
 20
-20.7997710053555
 10
165.5708574708567
 20
-20.53024658305556
 10
166.1473745410572
 20
-20.18798580195562
 10
166.7176296538575
 20
-19.77744238675576
 10
167.2750665400569
 20
-19.3037539648558
 10
167.8134876540566
 20
-18.77260282345566
 10
168.3269474969566
 20
-18.19021437895559
 10
168.8097731520571
 20
-17.56331158135562
 10
169.1771120962564
 20
-17.02407594335544
  0
LWPOLYLINE
  5
12F
330
70
100
AcDbEntity
  8
0
 62
    18
420
        0
370
    18
100
AcDbPolyline
 90
       15
 70
     0
 43
0.0
 10
169.1771120962564
 20
-17.02407594335544
 10
169.4004418335573
 20
-16.66434875065595
 10
169.7910530093567
 20
-15.96212171525601
 10
170.1347775343569
 20
-15.2404496261559
 10
170.4275233228564
 20
-14.50771922425555
 10
170.6658820777565
 20
-13.77212917745602
 10
170.8469898542568
 20
-13.04187216905568
 10
170.9685384455565
 20
-12.32504959495599
 10
171.0287744749572
 20
-11.62960142145561
 10
171.0264920880571
 20
-10.96326471535566
 10
170.961037419557
 20
-10.3335776986557
 10
170.8324053687569
 20
-9.748080280955786
 10
170.6414733722572
 20
-9.214293777155495
 10
170.3903266466566
 20
-8.739556839855948
 10
170.3885560499568
 20
-8.737204169555583
  0
LINE
  5
130
330
70
100
AcDbEntity
  8
0
 62
    18
420
        0
370
    18
100
AcDbLine
 10
169.4087136264566
 20
-7.780332517556015
 30
0.0
 11
168.4411186583572
 21
-7.221751832255495
 31
0.0
  0
LINE
  5
131
330
70
100
AcDbEntity
  8
0
 62
    18
420
        0
370
    18
100
AcDbLine
 10
160.9417281635574
 20
-20.21248476795568
 30
0.0
 11
161.9093231316568
 21
-20.77106545325556
 31
0.0
  0
LWPOLYLINE
  5
132
330
70
100
AcDbEntity
  8
0
 62
    18
420
        0
370
    18
100
AcDbPolyline
 90
       13
 70
     0
 43
0.0
 10
167.1386710588571
 20
-6.859901465155749
 10
167.0075312104572
 20
-6.848743165855415
 10
166.4761557485572
 20
-6.884655458355488
 10
165.9232744094564
 20
-6.999684030155749
 10
165.3553755725568
 20
-7.193046280155559
 10
164.7795843191573
 20
-7.462570702455493
 10
164.2030672489568
 20
-7.804831483555438
 10
163.6328121361565
 20
-8.21537489885604
 10
163.075375249957
 20
-8.689063320756002
 10
162.5369541359574
 20
-9.220214462056038
 10
162.0234942930574
 20
-9.802602906555465
 10
161.5406686379569
 20
-10.42950570415543
 10
161.1733296936574
 20
-10.96874134215561
  0
LWPOLYLINE
  5
133
330
70
100
AcDbEntity
  8
0
 62
    18
420
        0
370
    18
100
AcDbPolyline
 90
       15
 70
     0
 43
0.0
 10
161.1733296936574
 20
-10.96874134215561
 10
160.9499999564566
 20
-11.32846853485574
 10
160.5593887806572
 20
-12.03069557035579
 10
160.215664255657
 20
-12.7523676593558
 10
159.9229184671576
 20
-13.4850980613556
 10
159.6845597122574
 20
-14.22068810815577
 10
159.5034519357572
 20
-14.95094511655547
 10
159.3819033444575
 20
-15.66776769065581
 10
159.3216673150567
 20
-16.36321586415554
 10
159.3239497018567
 20
-17.02955257015604
 10
159.3894043704569
 20
-17.65923958695546
 10
159.518036421157
 20
-18.24473700465602
 10
159.7089684177568
 20
-18.77852350835556
 10
159.9601151433573
 20
-19.25326044565575
 10
159.9623840851572
 20
-19.25627528925556
  0
SPLINE
  5
134
330
70
100
AcDbEntity
  8
0
 62
    18
420
        0
370
    18
100
AcDbSpline
210
0.0
220
0.0
230
1.0
 70
     8
 71
     3
 72
     8
 73
     4
 74
     0
 42
0.0000000001
 43
0.0000000001
 40
0.0
 40
0.0
 40
0.0
 40
0.0
 40
1.0
 40
1.0
 40
1.0
 40
1.0
 10
143.13127401019
 20
30.78253058045142
 30
0.0
 10
143.1199228757652
 20
31.0319756391839
 30
0.0
 10
142.9880708104527
 20
31.26035011474216
 30
0.0
 10
142.7777206196243
 20
31.39490301436612
 30
0.0
  0
SPLINE
  5
135
330
70
100
AcDbEntity
  8
0
 62
    18
420
        0
370
    18
100
AcDbSpline
210
0.0
220
0.0
230
1.0
 70
     8
 71
     3
 72
     8
 73
     4
 74
     0
 42
0.0000000001
 43
0.0000000001
 40
0.0
 40
0.0
 40
0.0
 40
0.0
 40
1.0
 40
1.0
 40
1.0
 40
1.0
 10
142.4246210466975
 20
30.79998428407419
 30
0.0
 10
142.6446332563829
 20
30.68456198073151
 30
0.0
 10
142.9058318905261
 20
30.67811060532867
 30
0.0
 10
143.1312740101817
 20
30.78253058045142
 30
0.0
  0
SPLINE
  5
136
330
70
100
AcDbEntity
  8
0
 62
    18
420
        0
370
    18
100
AcDbSpline
210
0.0
220
0.0
230
1.0
 70
     8
 71
     3
 72
     8
 73
     4
 74
     0
 42
0.0000000001
 43
0.0000000001
 40
0.0
 40
0.0
 40
0.0
 40
0.0
 40
1.0
 40
1.0
 40
1.0
 40
1.0
 10
142.7777206196441
 20
31.39490301441425
 30
0.0
 10
142.5729212919647
 20
31.26324838969251
 30
0.0
 10
142.4420929039707
 20
31.04282258224086
 30
0.0
 10
142.4246210467251
 20
30.79998428412296
 30
0.0
  0
SPLINE
  5
137
330
70
100
AcDbEntity
  8
0
 62
    18
420
        0
370
    18
100
AcDbSpline
210
0.0
220
0.0
230
1.0
 70
     8
 71
     3
 72
     8
 73
     4
 74
     0
 42
0.0000000001
 43
0.0000000001
 40
0.0
 40
0.0
 40
0.0
 40
0.0
 40
1.0
 40
1.0
 40
1.0
 40
1.0
 10
142.4395084000234
 20
30.78278829971012
 30
0.0
 10
142.656847920862
 20
30.67233359651579
 30
0.0
 10
142.9138522492545
 20
30.67223784882543
 30
0.0
 10
143.1312740101752
 20
30.78253058047196
 30
0.0
  0
SPLINE
  5
138
330
70
100
AcDbEntity
  8
0
 62
    18
420
        0
370
    18
100
AcDbSpline
210
0.0
220
0.0
230
1.0
 70
     8
 71
     3
 72
     8
 73
     4
 74
     0
 42
0.0000000001
 43
0.0000000001
 40
0.0
 40
0.0
 40
0.0
 40
0.0
 40
1.0
 40
1.0
 40
1.0
 40
1.0
 10
142.4395084000202
 20
30.78278829969921
 30
0.0
 10
142.4346495150575
 20
30.78546872374277
 30
0.0
 10
142.4287252598994
 20
30.78533232338
 30
0.0
 10
142.4239948867174
 20
30.78243111575274
 30
0.0
  0
LWPOLYLINE
  5
139
330
70
100
AcDbEntity
  8
0
 62
    18
420
        0
370
    18
100
AcDbPolyline
 90
        5
 70
     0
 43
0.0
 10
142.4239948867571
 20
30.7824311157444
 10
142.4239957774572
 20
30.78245611404426
 10
142.424308228357
 20
30.79122010274437
 10
142.4244645915572
 20
30.79560216934396
 10
142.4246210466571
 20
30.79998428414414
  0
LWPOLYLINE
  5
13A
330
70
100
AcDbEntity
  8
0
 62
    18
420
        0
370
    18
100
AcDbPolyline
 90
        4
 70
     0
 43
0.0
 10
143.1312740101573
 20
30.78253058044436
 10
143.129565262157
 20
24.28752829584445
 10
143.1295509299572
 20
17.79350453204441
 10
143.1312740103569
 20
11.18555109534431
  0
SPLINE
  5
13B
330
70
100
AcDbEntity
  8
0
 62
    18
420
        0
370
    18
100
AcDbSpline
210
0.0
220
0.0
230
1.0
 70
     8
 71
     3
 72
     8
 73
     4
 74
     0
 42
0.0000000001
 43
0.0000000001
 40
0.0
 40
0.0
 40
0.0
 40
0.0
 40
1.0
 40
1.0
 40
1.0
 40
1.0
 10
142.4395086917154
 20
11.17690800418191
 30
0.0
 10
142.6585837291138
 20
11.07065452687463
 30
0.0
 10
142.9149220616192
 20
11.07385728292987
 30
0.0
 10
143.1312740103755
 20
11.18555109529361
 30
0.0
  0
LWPOLYLINE
  5
13C
330
70
100
AcDbEntity
  8
0
 62
    18
420
        0
370
    18
100
AcDbPolyline
 90
        7
 70
     0
 43
0.0
 10
142.439508691657
 20
11.17690800424416
 10
142.4395363451567
 20
11.99314064514444
 10
142.4396466053573
 20
15.25820759844396
 10
142.4397527644567
 20
21.789636139444
 10
142.4397145503568
 20
24.27810668284424
 10
142.4395086834568
 20
30.77419814084418
 10
142.4395084000568
 20
30.78278829974413
  0
LWPOLYLINE
  5
13D
330
70
100
AcDbEntity
  8
0
 62
    18
420
        0
370
    18
100
AcDbPolyline
 90
        4
 70
     0
 43
0.0
 10
135.7327943071573
 20
26.91846147524406
 10
137.8303615148568
 20
28.12974853014442
 10
140.1944013401567
 20
29.49491110444456
 10
142.4239948867571
 20
30.7824311157444
  0
LWPOLYLINE
  5
13E
330
70
100
AcDbEntity
  8
0
 62
    18
420
        0
370
    18
100
AcDbPolyline
 90
        5
 70
     0
 43
0.0
 10
142.4239948867571
 20
11.18512716364448
 10
142.4240169800572
 20
11.18511545754408
 10
142.4317626605571
 20
11.18101162154443
 10
142.4356356322572
 20
11.17895978554444
 10
142.439508691657
 20
11.17690800424416
  0
LWPOLYLINE
  5
13F
330
70
100
AcDbEntity
  8
0
 62
    18
420
        0
370
    18
100
AcDbPolyline
 90
        6
 70
     0
 43
0.0
 10
135.7439855944572
 20
22.33417498904444
 10
136.3094662392569
 20
21.36999740644437
 10
137.162270047657
 20
19.92693782034419
 10
138.0412620946572
 20
18.44800120314402
 10
138.9242316461573
 20
16.97038792644401
 10
142.4239948867571
 20
11.18512716364448
  0
LWPOLYLINE
  5
140
330
70
100
AcDbEntity
  8
0
 62
    18
420
        0
370
    18
100
AcDbPolyline
 90
        5
 70
     0
 43
0.0
 10
142.4246210466571
 20
30.79998428414414
 10
141.7172610896571
 20
31.20836618564448
 10
138.8879376688566
 20
32.84182765634414
 10
136.4124582971573
 20
34.27098120834406
 10
133.9373186009567
 20
35.69988487534435
  0
SPLINE
  5
141
330
70
100
AcDbEntity
  8
0
 62
    18
420
        0
370
    18
100
AcDbSpline
210
0.0
220
0.0
230
1.0
 70
     8
 71
     3
 72
     8
 73
     4
 74
     0
 42
0.0000000001
 43
0.0000000001
 40
0.0
 40
0.0
 40
0.0
 40
0.0
 40
1.0
 40
1.0
 40
1.0
 40
1.0
 10
134.2904555340501
 20
36.29220651322162
 30
0.0
 10
134.0863780498321
 20
36.16106090346037
 30
0.0
 10
133.955641990144
 20
35.94177543727798
 30
0.0
 10
133.9373186009599
 20
35.69988487538478
 30
0.0
  0
LWPOLYLINE
  5
142
330
70
100
AcDbEntity
  8
0
 62
    18
420
        0
370
    18
100
AcDbPolyline
 90
        4
 70
     0
 43
0.0
 10
134.2904555340571
 20
36.29220651314398
 10
138.3176603955569
 20
33.96796268134457
 10
140.5476160617569
 20
32.68138984244442
 10
142.7777206195569
 20
31.39490301444441
  0
SPLINE
  5
143
330
70
100
AcDbEntity
  8
0
 62
    18
420
        0
370
    18
100
AcDbSpline
210
0.0
220
0.0
230
1.0
 70
     8
 71
     3
 72
     8
 73
     4
 74
     0
 42
0.0000000001
 43
0.0000000001
 40
0.0
 40
0.0
 40
0.0
 40
0.0
 40
1.0
 40
1.0
 40
1.0
 40
1.0
 10
144.7156568424405
 20
31.69717532077533
 30
0.0
 10
144.7043057079785
 20
31.94662037949946
 30
0.0
 10
144.5724536426621
 20
32.17499485504041
 30
0.0
 10
144.3621034518472
 20
32.30954775467335
 30
0.0
  0
LINE
  5
144
330
70
100
AcDbEntity
  8
0
 62
    18
420
        0
370
    18
100
AcDbLine
 10
144.7156568424572
 20
31.69717532084399
 30
0.0
 11
143.1312740101573
 21
30.78253058044436
 31
0.0
  0
LINE
  5
145
330
70
100
AcDbEntity
  8
0
 62
    18
420
        0
370
    18
100
AcDbLine
 10
142.7777206195569
 20
31.39490301444441
 30
0.0
 11
144.3621034518568
 21
32.30954775474457
 31
0.0
  0
LWPOLYLINE
  5
146
330
70
100
AcDbEntity
  8
0
 62
    18
420
        0
370
    18
100
AcDbPolyline
 90
        7
 70
     0
 43
0.0
 10
125.4531511568568
 20
40.5794906647445
 10
125.455309590057
 20
40.57552915444427
 10
125.7198008184573
 20
40.09049782114425
 10
126.249805470657
 20
39.12097714804441
 10
127.3138987837571
 20
37.18411220664402
 10
129.4584599052566
 20
33.31919490674447
 10
131.7728503045568
 20
29.22031744834457
  0
LWPOLYLINE
  5
147
330
70
100
AcDbEntity
  8
0
 62
    18
420
        0
370
    18
100
AcDbPolyline
 90
        3
 70
     0
 43
0.0
 10
133.9364928415568
 20
35.67976002774408
 10
133.9369550648571
 20
35.69102983704431
 10
133.9373186009567
 20
35.69988487534435
  0
LWPOLYLINE
  5
148
330
70
100
AcDbEntity
  8
0
 62
    18
420
        0
370
    18
100
AcDbPolyline
 90
        5
 70
     0
 43
0.0
 10
142.4239948867571
 20
30.7824311157444
 10
140.2134549786568
 20
32.05758876324458
 10
138.003065356757
 20
33.33283322594406
 10
135.9696456919566
 20
34.50621957234404
 10
133.9364928415568
 20
35.67976002774408
  0
LINE
  5
149
330
70
100
AcDbEntity
  8
0
 62
    18
420
        0
370
    18
100
AcDbLine
 10
144.7156568424572
 20
12.10019583554436
 30
0.0
 11
144.7156568424572
 21
31.69717532084399
 31
0.0
  0
LINE
  5
14A
330
70
100
AcDbEntity
  8
0
 62
    18
420
        0
370
    18
100
AcDbLine
 10
143.1312740103569
 20
11.18555109534431
 30
0.0
 11
144.7156568424572
 21
12.10019583554436
 31
0.0
  0
LINE
  5
14B
330
70
100
AcDbEntity
  8
0
 62
    18
420
        0
370
    18
100
AcDbLine
 10
144.3621034518568
 20
32.30954775474457
 30
0.0
 11
127.3915407033572
 21
42.10644509654446
 31
0.0
  0
LWPOLYLINE
  5
14C
330
70
100
AcDbEntity
  8
0
 62
    18
420
        0
370
    18
100
AcDbPolyline
 90
        4
 70
     0
 43
0.0
 10
125.8071578711568
 20
41.19180035624429
 10
129.8324760264571
 20
38.8664832235444
 10
132.061316349157
 20
37.57925862974452
 10
134.2904555340571
 20
36.29220651314398
  0
LINE
  5
14D
330
70
100
AcDbEntity
  8
0
 62
    18
420
        0
370
    18
100
AcDbLine
 10
127.3915407033572
 20
42.10644509654446
 30
0.0
 11
125.8071578711568
 21
41.19180035624429
 31
0.0
  0
LWPOLYLINE
  5
14E
330
70
100
AcDbEntity
  8
0
 62
    18
420
        0
370
    18
100
AcDbPolyline
 90
        6
 70
     0
 43
0.0
 10
133.9373186009567
 20
35.69988487534435
 10
133.230228654657
 20
36.10807608844415
 10
130.4021779216569
 20
37.74060851034443
 10
127.9278894133568
 20
39.16888189144442
 10
125.4537892791569
 20
40.5970369273441
 10
125.446355936757
 20
40.60132777604406
  0
SPLINE
  5
14F
330
70
100
AcDbEntity
  8
0
 62
    18
420
        0
370
    18
100
AcDbSpline
210
0.0
220
0.0
230
1.0
 70
     8
 71
     3
 72
     8
 73
     4
 74
     0
 42
0.0000000001
 43
0.0000000001
 40
0.0
 40
0.0
 40
0.0
 40
0.0
 40
1.0
 40
1.0
 40
1.0
 40
1.0
 10
125.8071578711491
 20
41.19180035623595
 30
0.0
 10
125.5977890835556
 20
41.06559739439526
 30
0.0
 10
125.4631270715382
 20
40.84521546702787
 30
0.0
 10
125.4463559367737
 20
40.60132777600107
 30
0.0
  0
SPLINE
  5
150
330
70
100
AcDbEntity
  8
0
 62
    18
420
        0
370
    18
100
AcDbSpline
210
0.0
220
0.0
230
1.0
 70
     8
 71
     3
 72
     8
 73
     4
 74
     0
 42
0.0000000001
 43
0.0000000001
 40
0.0
 40
0.0
 40
0.0
 40
0.0
 40
1.0
 40
1.0
 40
1.0
 40
1.0
 10
125.4463559367545
 20
40.60132777606972
 30
0.0
 10
125.4467720582762
 20
40.59359731780425
 30
0.0
 10
125.4491074517264
 20
40.58609230020703
 30
0.0
 10
125.4531511568966
 20
40.57949066475734
 30
0.0
  0
LWPOLYLINE
  5
151
330
70
100
AcDbEntity
  8
0
 62
    18
420
        0
370
    18
100
AcDbPolyline
 90
        5
 70
     0
 43
0.0
 10
133.9364928415568
 20
35.67976002774408
 10
131.7269611080571
 20
36.95549985804405
 10
129.5177384683572
 20
38.23141806784429
 10
127.485384132557
 20
39.40541935384403
 10
125.4531511568568
 20
40.5794906647445
  0
LWPOLYLINE
  5
152
330
70
100
AcDbEntity
  8
0
 62
    18
420
        0
370
    18
100
AcDbPolyline
 90
        5
 70
     0
 43
0.0
 10
125.4531511568568
 20
40.5794906647445
 10
125.4531308619568
 20
40.57950340914411
 10
125.4460160576568
 20
40.58397144214459
 10
125.442458798657
 20
40.586205535144
 10
125.4389016350567
 20
40.5884396792445
  0
SPLINE
  5
153
330
70
100
AcDbEntity
  8
0
 62
    18
420
        0
370
    18
100
AcDbSpline
210
0.0
220
0.0
230
1.0
 70
     8
 71
     3
 72
     8
 73
     4
 74
     0
 42
0.0000000001
 43
0.0000000001
 40
0.0
 40
0.0
 40
0.0
 40
0.0
 40
1.0
 40
1.0
 40
1.0
 40
1.0
 10
142.4320597987217
 20
11.16402303075488
 30
0.0
 10
142.4310469291615
 20
11.17158860419165
 30
0.0
 10
142.4282856643876
 20
11.17881423772784
 30
0.0
 10
142.4239948867186
 20
11.18512716360918
 30
0.0
  0
SPLINE
  5
154
330
70
100
AcDbEntity
  8
0
 62
    18
420
        0
370
    18
100
AcDbSpline
210
0.0
220
0.0
230
1.0
 70
     8
 71
     3
 72
     8
 73
     4
 74
     0
 42
0.0000000001
 43
0.0000000001
 40
0.0
 40
0.0
 40
0.0
 40
0.0
 40
1.0
 40
1.0
 40
1.0
 40
1.0
 10
125.8071578711542
 20
41.19180035630718
 30
0.0
 10
125.5902773089009
 20
41.0658898062982
 30
0.0
 10
125.451730690008
 20
40.83889139166166
 30
0.0
 10
125.4389016350509
 20
40.58843967927787
 30
0.0
  0
SPLINE
  5
155
330
70
100
AcDbEntity
  8
0
 62
    18
420
        0
370
    18
100
AcDbSpline
210
0.0
220
0.0
230
1.0
 70
     8
 71
     3
 72
     8
 73
     4
 74
     0
 42
0.0000000001
 43
0.0000000001
 40
0.0
 40
0.0
 40
0.0
 40
0.0
 40
1.0
 40
1.0
 40
1.0
 40
1.0
 10
142.4395086916333
 20
11.17690800422298
 30
0.0
 10
142.4284363588603
 20
11.08710186936524
 30
0.0
 10
142.4686004483076
 20
10.99866084498013
 30
0.0
 10
142.5435084493841
 20
10.94790131596487
 30
0.0
  0
LWPOLYLINE
  5
156
330
70
100
AcDbEntity
  8
0
 62
    18
420
        0
370
    18
100
AcDbPolyline
 90
        4
 70
     0
 43
0.0
 10
142.5415503073572
 20
10.95531338384445
 10
142.5169572486567
 20
10.96420552684431
 10
142.4564032441571
 20
11.04467199874438
 10
142.432059798757
 20
11.16402303074397
  0
SPLINE
  5
157
330
70
100
AcDbEntity
  8
0
 62
    18
420
        0
370
    18
100
AcDbSpline
210
0.0
220
0.0
230
1.0
 70
     8
 71
     3
 72
     8
 73
     4
 74
     0
 42
0.0000000001
 43
0.0000000001
 40
0.0
 40
0.0
 40
0.0
 40
0.0
 40
1.0
 40
1.0
 40
1.0
 40
1.0
 10
144.6120831350153
 20
11.87127343229063
 30
0.0
 10
144.6870285700975
 20
11.92193208214595
 30
0.0
 10
144.7270820050132
 20
12.01045965160202
 30
0.0
 10
144.7156568424495
 20
12.10019583552576
 30
0.0
  0
SPLINE
  5
158
330
70
100
AcDbEntity
  8
0
 62
    18
420
        0
370
    18
100
AcDbSpline
210
0.0
220
0.0
230
1.0
 70
     8
 71
     3
 72
     8
 73
     4
 74
     0
 42
0.0000000001
 43
0.0000000001
 40
0.0
 40
0.0
 40
0.0
 40
0.0
 40
1.0
 40
1.0
 40
1.0
 40
1.0
 10
127.3915407033822
 20
42.10644509660349
 30
0.0
 10
127.3185970758111
 20
42.15870146016802
 30
0.0
 10
127.2233367869505
 20
42.16813452915102
 30
0.0
 10
127.1415610202231
 20
42.13119912185097
 30
0.0
  0
SPLINE
  5
159
330
70
100
AcDbEntity
  8
0
 62
    18
420
        0
370
    18
100
AcDbSpline
210
0.0
220
0.0
230
1.0
 70
     8
 71
     3
 72
     8
 73
     4
 74
     0
 42
0.0000000001
 43
0.0000000001
 40
0.0
 40
0.0
 40
0.0
 40
0.0
 40
1.0
 40
1.0
 40
1.0
 40
1.0
 10
122.3203103567655
 20
15.36188165790348
 30
0.0
 10
121.66674079414
 20
15.66120970922493
 30
0.0
 10
120.9026436432603
 20
15.585545639548
 30
0.0
 10
120.3204728914921
 20
15.1638494559237
 30
0.0
  0
LWPOLYLINE
  5
15A
330
70
100
AcDbEntity
  8
0
 62
    18
420
        0
370
    18
100
AcDbPolyline
 90
       17
 70
     0
 43
0.0
 10
118.3206354262571
 20
8.433490758844474
 10
118.3204728914567
 20
8.433584603344039
 10
118.0322272802573
 20
8.656907546244472
 10
117.8003258701569
 20
8.960029215244537
 10
117.6304788436571
 20
9.335485749044092
 10
117.5268683981572
 20
9.774032161544402
 10
117.4920457667568
 20
10.26486998474409
 10
117.5268683981572
 20
10.79591316224444
 10
117.6304788436571
 20
11.35408564884443
 10
117.8003258701569
 20
11.92564338524436
 10
118.0322272802573
 20
12.49651272324411
 10
118.3204728914567
 20
13.05263696494401
 10
118.6579651403568
 20
13.58032248604454
 10
119.0363938476571
 20
14.06657591764419
 10
119.4464408425569
 20
14.49942408644407
 10
119.8780094073568
 20
14.86820883394436
 10
120.3204728914568
 20
15.16384945584413
  0
LWPOLYLINE
  5
15B
330
70
100
AcDbEntity
  8
0
 62
    18
420
        0
370
    18
100
AcDbPolyline
 90
       26
 70
     0
 43
0.0
 10
119.0168469631567
 20
17.26893048234419
 10
118.4608467092566
 20
17.55043815004408
 10
117.8455991573572
 20
17.78779697294405
 10
117.1819564331573
 20
17.97675800194429
 10
116.4812736477567
 20
18.11408806134416
 10
115.755539677757
 20
18.19743739584395
 10
115.0171720325571
 20
18.22537987524403
 10
114.2788043874568
 20
18.19743739584395
 10
113.5530704174571
 20
18.11408806134416
 10
112.8523876320571
 20
17.97675800194429
 10
112.1887449078572
 20
17.78779697294405
 10
111.5734973559571
 20
17.55043815004408
 10
111.017172032557
 20
17.26874280844424
 10
110.5292878182571
 20
16.94753083364409
 10
110.1181925470571
 20
16.59229825144446
 10
109.790920173057
 20
16.20912318994422
 10
109.553070417457
 20
15.80456188054418
 10
109.408712955357
 20
15.38553647954447
 10
109.3603177830571
 20
14.95921662764425
 10
109.408712955357
 20
14.53289677584414
 10
109.553070417457
 20
14.11387137484443
 10
109.790920173057
 20
13.70931006544438
 10
110.1181925470571
 20
13.32613500394415
 10
110.5292878182571
 20
12.97090242174452
 10
111.017172032557
 20
12.64969044684426
 10
111.0174971020571
 20
12.64950277304442
  0
LWPOLYLINE
  5
15C
330
70
100
AcDbEntity
  8
0
 62
    18
420
        0
370
    18
100
AcDbPolyline
 90
       22
 70
     0
 43
0.0
 10
135.7553391993572
 20
22.31242865984422
 10
135.7555017340569
 20
22.31252250434443
 10
136.0437473453571
 20
22.53584544724422
 10
136.2756487553567
 20
22.83896711624429
 10
136.4454957818571
 20
23.21442365004449
 10
136.549106227357
 20
23.65297006254415
 10
136.5839288587568
 20
24.14380788564437
 10
136.549106227357
 20
24.67485106324419
 10
136.4454957818571
 20
25.23302354984418
 10
136.2756487553567
 20
25.80458128624411
 10
136.0437473453571
 20
26.3754506241444
 10
135.7555017340569
 20
26.93157486594441
 10
135.4180094851568
 20
27.45926038704429
 10
135.0395807778572
 20
27.94551381864458
 10
134.6295337829567
 20
28.37836198734436
 10
134.1979652182569
 20
28.74714673494411
 10
133.7555017340568
 20
29.04278735684452
 10
133.3130382498568
 20
29.2580041998443
 10
132.8814696851569
 20
29.38749791094432
 10
132.471422690157
 20
29.42807992534446
 10
132.0929939829569
 20
29.37875097894414
 10
131.7556642687571
 20
29.2408195588442
  0
LWPOLYLINE
  5
15D
330
70
100
AcDbEntity
  8
0
 62
    18
420
        0
370
    18
100
AcDbPolyline
 90
       16
 70
     0
 43
0.0
 10
117.4920457667568
 20
10.26486998474409
 10
117.5268683981572
 20
10.79591316224444
 10
117.6304788436571
 20
11.35408564884443
 10
117.8003258701569
 20
11.92564338524436
 10
118.0322272802573
 20
12.49651272324411
 10
118.3204728914567
 20
13.05263696494401
 10
118.6579651403568
 20
13.58032248604454
 10
119.0363938476571
 20
14.06657591764419
 10
119.4464408425569
 20
14.49942408644407
 10
119.8780094073568
 20
14.86820883394436
 10
120.3204728914568
 20
15.16384945584413
 10
120.7629363756568
 20
15.37906629884455
 10
121.1945049403567
 20
15.50856001004403
 10
121.6045519353572
 20
15.54914202434406
 10
121.9829806426569
 20
15.49981307794439
 10
122.3203103567572
 20
15.36188165784445
  0
SPLINE
  5
15E
330
70
100
AcDbEntity
  8
0
 62
    18
420
        0
370
    18
100
AcDbSpline
210
0.0
220
0.0
230
1.0
 70
     8
 71
     3
 72
     8
 73
     4
 74
     0
 42
0.0000000001
 43
0.0000000001
 40
0.0
 40
0.0
 40
0.0
 40
0.0
 40
1.0
 40
1.0
 40
1.0
 40
1.0
 10
117.4920457667324
 20
10.26486998473959
 30
0.0
 10
117.4110563770618
 20
9.548582141980725
 30
0.0
 10
117.7291485081924
 20
8.845523258482439
 30
0.0
 10
118.3206354262058
 20
8.433490758863085
 30
0.0
  0
LWPOLYLINE
  5
15F
330
70
100
AcDbEntity
  8
0
 62
    18
420
        0
370
    18
100
AcDbPolyline
 90
       55
 70
     0
 43
0.0
 10
169.1477343148568
 20
-16.99395953705572
 10
169.580585917557
 20
-16.26944740895584
 10
169.9627940730574
 20
-15.51935240915558
 10
170.2891900718575
 20
-14.75381828595559
 10
170.5553599678571
 20
-13.9831975749558
 10
170.7577042697571
 20
-13.21791159935591
 10
170.8934866181564
 20
-12.46830953905553
 10
170.9608707896573
 20
-11.74452847605587
 10
170.9589455289571
 20
-11.05635630765604
 10
170.8877368719574
 20
-10.41309938175551
 10
170.7482077934569
 20
-9.823456644955664
 10
170.5422451848565
 20
-9.295402003555752
 10
170.2726343372575
 20
-8.836076490855504
 10
169.9430212748571
 20
-8.451691696355485
 10
169.557863448757
 20
-8.147445764955463
 10
169.1223694579576
 20
-7.927453101155916
 10
168.6424286114573
 20
-7.794688728155709
 10
168.1245312859568
 20
-7.75094805635563
 10
167.5756811543567
 20
-7.796822603355898
 10
167.0033004730572
 20
-7.931691994655939
 10
166.4151297090564
 20
-8.153732352955545
 10
165.8191228626573
 20
-8.459940963556032
 10
165.2233399042574
 20
-8.84617687995569
 10
164.6358377762573
 20
-9.307216924255662
 10
164.0645614369572
 20
-9.836826320655747
 10
163.5172364189573
 20
-10.42784301065585
 10
163.001264354157
 20
-11.0722745073557
 10
162.5236228796566
 20
-11.76140598015576
 10
162.0907712769564
 20
-12.48591810835575
 10
161.7085631213571
 20
-13.23601310805591
 10
161.3821671226572
 20
-14.001547231356
 10
161.1159972266563
 20
-14.77216794235578
 10
160.9136529246575
 20
-15.53745391795567
 10
160.7778705762569
 20
-16.28705597815595
 10
160.7104864047573
 20
-17.01083704115561
 10
160.7124116654575
 20
-17.69900920955544
 10
160.7836203225573
 20
-18.34226613545597
 10
160.9231494010565
 20
-18.93190887235592
 10
161.1291120095567
 20
-19.45996351365573
 10
161.3987228571571
 20
-19.91928902645544
 10
161.7283359196576
 20
-20.30367382095546
 10
162.1134937456576
 20
-20.60791975225602
 10
162.5489877365571
 20
-20.82791241615567
 10
163.0289285830573
 20
-20.96067678915588
 10
163.5468259085566
 20
-21.00441746085586
 10
164.0956760401568
 20
-20.95854291385558
 10
164.6680567213574
 20
-20.82367352255555
 10
165.256227485457
 20
-20.60163316425594
 10
165.8522343317573
 20
-20.29542455375556
 10
166.4480172901572
 20
-19.90918863725579
 10
167.0355194182574
 20
-19.44814859295582
 10
167.6067957575575
 20
-18.91853919655574
 10
168.1541207754573
 20
-18.32752250655563
 10
168.6700928402563
 20
-17.68309100995589
 10
169.1477343148568
 20
-16.99395953705572
  0
SPLINE
  5
160
330
70
100
AcDbEntity
  8
0
 62
    18
420
        0
370
    18
100
AcDbSpline
210
0.0
220
0.0
230
1.0
 70
     8
 71
     3
 72
     8
 73
     4
 74
     0
 42
0.0000000001
 43
0.0000000001
 40
0.0
 40
0.0
 40
0.0
 40
0.0
 40
1.0
 40
1.0
 40
1.0
 40
1.0
 10
160.9754627807845
 20
-19.85231439409126
 30
0.0
 10
161.4429441931221
 20
-20.61868706637673
 30
0.0
 10
162.2669592577043
 20
-21.0959288783825
 30
0.0
 10
163.1643358714716
 20
-21.12003607170346
 30
0.0
  0
SPLINE
  5
161
330
70
100
AcDbEntity
  8
0
 62
    18
420
        0
370
    18
100
AcDbSpline
210
0.0
220
0.0
230
1.0
 70
     8
 71
     3
 72
     8
 73
     4
 74
     0
 42
0.0000000001
 43
0.0000000001
 40
0.0
 40
0.0
 40
0.0
 40
0.0
 40
1.0
 40
1.0
 40
1.0
 40
1.0
 10
170.3332135335825
 20
-8.684229956830785
 30
0.0
 10
169.8608086270999
 20
-7.921992997865585
 30
0.0
 10
169.0349706810567
 20
-7.450366905282421
 30
0.0
 10
168.1384277256618
 20
-7.430814247845678
 30
0.0
  0
SPLINE
  5
162
330
70
100
AcDbEntity
  8
0
 62
    18
420
        0
370
    18
100
AcDbSpline
210
0.0
220
0.0
230
1.0
 70
     8
 71
     3
 72
     8
 73
     4
 74
     0
 42
0.0000000001
 43
0.0000000001
 40
0.0
 40
0.0
 40
0.0
 40
0.0
 40
1.0
 40
1.0
 40
1.0
 40
1.0
 10
160.0181057072802
 20
-19.30997037616958
 30
0.0
 10
160.2488643923418
 20
-19.68075290148355
 30
0.0
 10
160.5657108003996
 20
-19.9903582399983
 30
0.0
 10
160.9417281635766
 20
-20.21248476790435
 30
0.0
  0
SPLINE
  5
163
330
70
100
AcDbEntity
  8
0
 62
    18
420
        0
370
    18
100
AcDbSpline
210
0.0
220
0.0
230
1.0
 70
     8
 71
     3
 72
     8
 73
     4
 74
     0
 42
0.0000000001
 43
0.0000000001
 40
0.0
 40
0.0
 40
0.0
 40
0.0
 40
1.0
 40
1.0
 40
1.0
 40
1.0
 10
168.4411186583533
 20
-7.221751832259987
 30
0.0
 10
168.0659692325827
 20
-7.008388114433237
 30
0.0
 10
167.6447279451138
 20
-6.889051186273306
 30
0.0
 10
167.2134125554719
 20
-6.873944816757516
 30
0.0
  0
LWPOLYLINE
  5
164
330
70
100
AcDbEntity
  8
0
 62
     8
420
  8421504
370
    18
100
AcDbPolyline
 90
        6
 70
     0
 43
0.0
 10
125.4389016350567
 20
40.5884396792445
 10
125.4383680112569
 20
39.77191494794404
 10
125.4364696003573
 20
36.5058157171446
 10
125.4349140782572
 20
29.97355047674437
 10
125.4354435783571
 20
27.48536354664395
 10
125.436451329557
 20
25.59281557894446
  0
LWPOLYLINE
  5
165
330
70
100
AcDbEntity
  8
0
 62
     8
420
  8421504
370
    18
100
AcDbPolyline
 90
        5
 70
     0
 43
0.0
 10
129.4352898627572
 20
18.66394183804422
 10
134.6443053084568
 20
15.65518708834453
 10
136.7992482137569
 20
14.41177642994415
 10
142.4246210479572
 20
11.16831075634413
 10
142.432059798757
 20
11.16402303074397
  0
SPLINE
  5
166
330
70
100
AcDbEntity
  8
0
 62
     8
420
  8421504
370
    18
100
AcDbSpline
210
0.0
220
0.0
230
1.0
 70
     8
 71
     3
 72
     8
 73
     4
 74
     0
 42
0.0000000001
 43
0.0000000001
 40
0.0
 40
0.0
 40
0.0
 40
0.0
 40
1.0
 40
1.0
 40
1.0
 40
1.0
 10
143.0277003029156
 20
10.95662869209057
 30
0.0
 10
143.1026457379972
 20
11.00728734194589
 30
0.0
 10
143.1426991729129
 20
11.09581491140196
 30
0.0
 10
143.1312740103498
 20
11.1855510953257
 30
0.0
  0
SPLINE
  5
167
330
70
100
AcDbEntity
  8
0
 62
     8
420
  8421504
370
    18
100
AcDbSpline
210
0.0
220
0.0
230
1.0
 70
     8
 71
     3
 72
     8
 73
     4
 74
     0
 42
0.0000000001
 43
0.0000000001
 40
0.0
 40
0.0
 40
0.0
 40
0.0
 40
1.0
 40
1.0
 40
1.0
 40
1.0
 10
125.3071578984627
 20
40.78369479074544
 30
0.0
 10
125.3142992398562
 20
40.70018790114787
 30
0.0
 10
125.3641392522476
 20
40.62632088151737
 30
0.0
 10
125.438901635047
 20
40.58843967924835
 30
0.0
  0
SPLINE
  5
168
330
70
100
AcDbEntity
  8
0
 62
     8
420
  8421504
370
    18
100
AcDbSpline
210
0.0
220
0.0
230
1.0
 70
     8
 71
     3
 72
     8
 73
     4
 74
     0
 42
0.0000000001
 43
0.0000000001
 40
0.0
 40
0.0
 40
0.0
 40
0.0
 40
1.0
 40
1.0
 40
1.0
 40
1.0
 10
125.8071578711266
 20
41.19180035628023
 30
0.0
 10
125.7342142436498
 20
41.2440567199423
 30
0.0
 10
125.6389539547885
 20
41.25348978896123
 30
0.0
 10
125.5571781881067
 20
41.21655438160791
 30
0.0
  0
LWPOLYLINE
  5
169
330
70
100
AcDbEntity
  8
0
 62
     8
420
  8421504
370
    18
100
AcDbPolyline
 90
       24
 70
     0
 43
0.0
 10
160.9754627807575
 20
-19.85231439415542
 10
160.8706459836569
 20
-19.67234359825545
 10
160.6420052033573
 20
-19.1568684154557
 10
160.4787688622575
 20
-18.57775972425595
 10
160.3830649958569
 20
-17.94256709215593
 10
160.3561412503576
 20
-17.25957122665541
 10
160.3983486178569
 20
-16.53767602315578
 10
160.5091368609569
 20
-15.78629248965594
 10
160.6870616852571
 20
-15.01521605975593
 10
160.9298035687572
 20
-14.23449889385566
 10
161.2341979997573
 20
-13.45431883415569
 10
161.5962767311568
 20
-12.68484672085549
 10
162.0113195132569
 20
-11.93611379975593
 10
162.4739156283564
 20
-11.21788094945597
 10
162.9780344289571
 20
-10.53951143355604
 10
163.5171039552564
 20
-9.909848836156037
 10
164.0840966117572
 20
-9.337101772155634
 10
164.6716207819563
 20
-8.828736875455563
 10
165.2720171899575
 20
-8.39138145995567
 10
165.8774587502574
 20
-8.030737122255686
 10
166.4800526062572
 20
-7.751505412955403
 10
167.071943025557
 20
-7.557326544255634
 10
167.6454138112573
 20
-7.450731934755562
 10
168.1384277256567
 20
-7.430814247855945
  0
LWPOLYLINE
  5
16A
330
70
100
AcDbEntity
  8
0
 62
     8
420
  8421504
370
    18
100
AcDbPolyline
 90
       13
 70
     0
 43
0.0
 10
161.2694417061572
 20
-11.01400819755576
 10
160.8299054195569
 20
-11.7486892717559
 10
160.4407099254573
 20
-12.50903182865585
 10
160.1069289821569
 20
-13.28512364025576
 10
159.8329139349576
 20
-14.06684716295545
 10
159.6222369887574
 20
-14.84401143495588
 10
159.4776446399566
 20
-15.60648493165575
 10
159.4010218709567
 20
-16.34432764495598
 10
159.3933675765573
 20
-17.04792066655587
 10
159.4547815423565
 20
-17.70809158555551
 10
159.5844631432574
 20
-18.31623406435589
 10
159.780721781357
 20
-18.86442003565604
 10
160.0181057072571
 20
-19.30997037625557
  0
LWPOLYLINE
  5
16B
330
70
100
AcDbEntity
  8
0
 62
     8
420
  8421504
370
    18
100
AcDbPolyline
 90
       12
 70
     0
 43
0.0
 10
167.2134125554565
 20
-6.87394481675559
 10
166.955298529857
 20
-6.872177499055772
 10
166.3938599473568
 20
-6.934386623655499
 10
165.8102275010574
 20
-7.08501902855561
 10
165.2120097323569
 20
-7.322110989955588
 10
164.6070053249574
 20
-7.642571651455802
 10
164.0031014362566
 20
-8.042223318455862
 10
163.4081708772574
 20
-8.515855920055614
 10
162.8299694774575
 20
-9.057294931155608
 10
162.2760349764567
 20
-9.659481866155955
 10
161.7535887575567
 20
-10.31456629745572
 10
161.2694417061572
 20
-11.01400819755576
  0
INSERT
  5
16E
330
70
100
AcDbEntity
  8
CAPA_BASE
100
AcDbBlockReference
  2
Block_0
 10
0.0
 20
0.0
 30
0.0
  0
INSERT
  5
17A
330
70
100
AcDbEntity
  8
CAPA_BASE
100
AcDbBlockReference
  2
Block_1
 10
0.0
 20
0.0
 30
0.0
  0
INSERT
  5
186
330
70
100
AcDbEntity
  8
CAPA_BASE
100
AcDbBlockReference
  2
Block_2
 10
0.0
 20
0.0
 30
0.0
  0
ENDSEC
  0
SECTION
  2
OBJECTS
  0
DICTIONARY
  5
C
330
0
100
AcDbDictionary
281
     1
  3
ACAD_COLOR
350
63
  3
ACAD_DETAILVIEWSTYLE
350
6A
  3
ACAD_GROUP
350
D
  3
ACAD_LAYOUT
350
62
  3
ACAD_MATERIAL
350
10
  3
ACAD_MLEADERSTYLE
350
66
  3
ACAD_MLINESTYLE
350
5F
  3
ACAD_PLOTSETTINGS
350
61
  3
ACAD_PLOTSTYLENAME
350
E
  3
ACAD_SCALELIST
350
42
  3
ACAD_SECTIONVIEWSTYLE
350
68
  3
ACAD_TABLESTYLE
350
64
  3
ACAD_VISUALSTYLE
350
29
  3
ACDB_RECOMPOSE_DATA
350
199
  3
AcDbVariableDictionary
350
191
  0
DICTIONARY
  5
63
102
{ACAD_REACTORS
330
C
102
}
330
C
100
AcDbDictionary
281
     1
  0
DICTIONARY
  5
6A
102
{ACAD_REACTORS
330
C
102
}
330
C
100
AcDbDictionary
281
     1
  3
Imperial24
350
6B
  0
DICTIONARY
  5
D
102
{ACAD_REACTORS
330
C
102
}
330
C
100
AcDbDictionary
281
     1
  0
DICTIONARY
  5
62
102
{ACAD_REACTORS
330
C
102
}
330
C
100
AcDbDictionary
281
     1
  3
Layout1
350
6F
  3
Layout2
350
77
  3
Model
350
73
  0
DICTIONARY
  5
10
102
{ACAD_REACTORS
330
C
102
}
330
C
100
AcDbDictionary
281
     1
  3
ByBlock
350
19
  3
ByLayer
350
11
  3
Global
350
21
  0
DICTIONARY
  5
66
102
{ACAD_REACTORS
330
C
102
}
330
C
100
AcDbDictionary
281
     1
  3
Standard
350
67
  0
DICTIONARY
  5
5F
102
{ACAD_REACTORS
330
C
102
}
330
C
100
AcDbDictionary
281
     1
  3
Standard
350
60
  0
DICTIONARY
  5
61
102
{ACAD_REACTORS
330
C
102
}
330
C
100
AcDbDictionary
281
     1
  0
ACDBDICTIONARYWDFLT
  5
E
102
{ACAD_REACTORS
330
C
102
}
330
C
100
AcDbDictionary
281
     1
  3
Normal
350
F
100
AcDbDictionaryWithDefault
340
F
  0
DICTIONARY
  5
42
102
{ACAD_REACTORS
330
C
102
}
330
C
100
AcDbDictionary
281
     1
  3
A0
350
43
  3
A1
350
44
  3
A2
350
45
  3
A3
350
46
  3
A4
350
47
  3
A5
350
48
  3
A6
350
49
  3
A7
350
4A
  3
A8
350
4B
  3
A9
350
4C
  3
B0
350
4D
  3
B1
350
4E
  3
B2
350
4F
  3
B3
350
50
  3
B4
350
51
  3
B5
350
52
  3
B6
350
53
  0
DICTIONARY
  5
68
102
{ACAD_REACTORS
330
C
102
}
330
C
100
AcDbDictionary
281
     1
  3
Imperial24
350
69
  0
DICTIONARY
  5
64
102
{ACAD_REACTORS
330
C
102
}
330
C
100
AcDbDictionary
281
     1
  3
Standard
350
65
  0
DICTIONARY
  5
29
102
{ACAD_REACTORS
330
C
102
}
330
C
100
AcDbDictionary
281
     1
  3
2dWireframe
350
2F
  3
Basic
350
2E
  3
Brighten
350
35
  3
ColorChange
350
39
  3
Conceptual
350
32
  3
Dim
350
34
  3
EdgeColorOff
350
41
  3
Facepattern
350
38
  3
Flat
350
2A
  3
FlatWithEdges
350
2B
  3
Gouraud
350
2C
  3
GouraudWithEdges
350
2D
  3
Hidden
350
31
  3
JitterOff
350
3F
  3
Linepattern
350
37
  3
OverhangOff
350
40
  3
Realistic
350
33
  3
Shaded
350
3E
  3
Shaded with edges
350
3D
  3
Shades of Gray
350
3A
  3
Sketchy
350
3B
  3
Thicken
350
36
  3
Wireframe
350
30
  3
X-Ray
350
3C
  0
XRECORD
  5
199
102
{ACAD_REACTORS
330
C
102
}
330
C
100
AcDbXrecord
280
     1
 90
        1
330
65
  0
DICTIONARY
  5
191
102
{ACAD_REACTORS
330
C
102
}
330
C
100
AcDbDictionary
281
     1
  3
CANNOSCALE
350
196
  3
CMLEADERSTYLE
350
193
  3
CTABLESTYLE
350
192
  3
CVIEWDETAILSTYLE
350
194
  3
CVIEWSECTIONSTYLE
350
195
  0
ACDBDETAILVIEWSTYLE
  5
6B
102
{ACAD_REACTORS
330
6A
102
}
330
6A
100
AcDbModelDocViewStyle
 70
     0
  3
Imperial24
290
     1
300
Imperial24
 90
        0
100
AcDbDetailViewStyle
 70
     0
 71
     0
 90
        3
 71
     1
340
55
 62
   256
 40
0.24
340
0
 62
   256
 40
0.24
300

 40
0.36
280
     3
 71
     2
340
5D
 90
       25
 62
   256
 71
     3
340
55
 62
   256
 40
0.24
 90
        1
 40
0.75
 90
        1
300
%<\AcVar ViewType \f "%tc1">% %<\AcVar ViewDetailId>%\PSCALE %<\AcVar ViewScale \f "%sn">%
 71
     4
340
5D
 90
       25
 62
   256
340
5D
 90
       25
 62
   256
280
     0
  0
LAYOUT
  5
6F
102
{ACAD_REACTORS
330
62
102
}
330
62
100
AcDbPlotSettings
  1

  2

  4

  6

 40
0.0
 41
0.0
 42
0.0
 43
0.0
 44
0.0
 45
0.0
 46
0.0
 47
0.0
 48
0.0
 49
0.0
140
0.0
141
0.0
142
1.0
143
1.0
 70
   688
 72
     0
 73
     0
 74
     5
  7

 75
    16
147
1.0
 76
     0
 77
     2
 78
   300
148
0.0
149
0.0
100
AcDbLayout
  1
Layout1
 70
     1
 71
     1
 10
0.0
 20
0.0
 11
12.0
 21
9.0
 12
0.0
 22
0.0
 32
0.0
 14
0.0
 24
0.0
 34
0.0
 15
0.0
 25
0.0
 35
0.0
146
0.0
 13
0.0
 23
0.0
 33
0.0
 16
1.0
 26
0.0
 36
0.0
 17
0.0
 27
1.0
 37
0.0
 76
     0
330
6C
  0
LAYOUT
  5
77
102
{ACAD_REACTORS
330
62
102
}
330
62
100
AcDbPlotSettings
  1

  2

  4

  6

 40
0.0
 41
0.0
 42
0.0
 43
0.0
 44
0.0
 45
0.0
 46
0.0
 47
0.0
 48
0.0
 49
0.0
140
0.0
141
0.0
142
1.0
143
1.0
 70
   688
 72
     0
 73
     0
 74
     5
  7

 75
    16
147
1.0
 76
     0
 77
     2
 78
   300
148
0.0
149
0.0
100
AcDbLayout
  1
Layout2
 70
     1
 71
     2
 10
0.0
 20
0.0
 11
12.0
 21
9.0
 12
0.0
 22
0.0
 32
0.0
 14
0.0
 24
0.0
 34
0.0
 15
0.0
 25
0.0
 35
0.0
146
0.0
 13
0.0
 23
0.0
 33
0.0
 16
1.0
 26
0.0
 36
0.0
 17
0.0
 27
1.0
 37
0.0
 76
     0
330
74
  0
LAYOUT
  5
73
102
{ACAD_REACTORS
330
62
102
}
330
62
100
AcDbPlotSettings
  1

  2

  4

  6

 40
0.0
 41
0.0
 42
0.0
 43
0.0
 44
0.0
 45
0.0
 46
0.0
 47
0.0
 48
0.0
 49
0.0
140
0.0
141
0.0
142
1.0
143
1.0
 70
  1712
 72
     0
 73
     0
 74
     0
  7

 75
     0
147
1.0
 76
     0
 77
     2
 78
   300
148
0.0
149
0.0
100
AcDbLayout
  1
Model
 70
     1
 71
     0
 10
0.0
 20
0.0
 11
12.0
 21
9.0
 12
0.0
 22
0.0
 32
0.0
 14
0.0
 24
0.0
 34
0.0
 15
0.0
 25
0.0
 35
0.0
146
0.0
 13
0.0
 23
0.0
 33
0.0
 16
1.0
 26
0.0
 36
0.0
 17
0.0
 27
1.0
 37
0.0
 76
     0
330
70
  0
MATERIAL
  5
19
102
{ACAD_XDICTIONARY
360
1A
102
}
102
{ACAD_REACTORS
330
10
102
}
330
10
100
AcDbMaterial
  1
ByBlock
 72
     0
 43
0.0208333333333333
 43
0.0
 43
0.0
 43
0.0
 43
0.0
 43
0.0208333333333333
 43
0.0
 43
0.0
 43
0.0
 43
0.0
 43
1.0
 43
0.0
 43
0.0
 43
0.0
 43
0.0
 43
1.0
 77
     0
 47
0.0208333333333333
 47
0.0
 47
0.0
 47
0.0
 47
0.0
 47
0.0208333333333333
 47
0.0
 47
0.0
 47
0.0
 47
0.0
 47
1.0
 47
0.0
 47
0.0
 47
0.0
 47
0.0
 47
1.0
171
     0
 49
0.0208333333333333
 49
0.0
 49
0.0
 49
0.0
 49
0.0
 49
0.0208333333333333
 49
0.0
 49
0.0
 49
0.0
 49
0.0
 49
1.0
 49
0.0
 49
0.0
 49
0.0
 49
0.0
 49
1.0
175
     0
142
0.0208333333333333
142
0.0
142
0.0
142
0.0
142
0.0
142
0.0208333333333333
142
0.0
142
0.0
142
0.0
142
0.0
142
1.0
142
0.0
142
0.0
142
0.0
142
0.0
142
1.0
179
     0
144
0.0208333333333333
144
0.0
144
0.0
144
0.0
144
0.0
144
0.0208333333333333
144
0.0
144
0.0
144
0.0
144
0.0
144
1.0
144
0.0
144
0.0
144
0.0
144
0.0
144
1.0
147
0.0208333333333333
147
0.0
147
0.0
147
0.0
147
0.0
147
0.0208333333333333
147
0.0
147
0.0
147
0.0
147
0.0
147
1.0
147
0.0
147
0.0
147
0.0
147
0.0
147
1.0
  0
MATERIAL
  5
11
102
{ACAD_XDICTIONARY
360
12
102
}
102
{ACAD_REACTORS
330
10
102
}
330
10
100
AcDbMaterial
  1
ByLayer
 72
     0
 43
0.0208333333333333
 43
0.0
 43
0.0
 43
0.0
 43
0.0
 43
0.0208333333333333
 43
0.0
 43
0.0
 43
0.0
 43
0.0
 43
1.0
 43
0.0
 43
0.0
 43
0.0
 43
0.0
 43
1.0
 77
     0
 47
0.0208333333333333
 47
0.0
 47
0.0
 47
0.0
 47
0.0
 47
0.0208333333333333
 47
0.0
 47
0.0
 47
0.0
 47
0.0
 47
1.0
 47
0.0
 47
0.0
 47
0.0
 47
0.0
 47
1.0
171
     0
 49
0.0208333333333333
 49
0.0
 49
0.0
 49
0.0
 49
0.0
 49
0.0208333333333333
 49
0.0
 49
0.0
 49
0.0
 49
0.0
 49
1.0
 49
0.0
 49
0.0
 49
0.0
 49
0.0
 49
1.0
175
     0
142
0.0208333333333333
142
0.0
142
0.0
142
0.0
142
0.0
142
0.0208333333333333
142
0.0
142
0.0
142
0.0
142
0.0
142
1.0
142
0.0
142
0.0
142
0.0
142
0.0
142
1.0
179
     0
144
0.0208333333333333
144
0.0
144
0.0
144
0.0
144
0.0
144
0.0208333333333333
144
0.0
144
0.0
144
0.0
144
0.0
144
1.0
144
0.0
144
0.0
144
0.0
144
0.0
144
1.0
147
0.0208333333333333
147
0.0
147
0.0
147
0.0
147
0.0
147
0.0208333333333333
147
0.0
147
0.0
147
0.0
147
0.0
147
1.0
147
0.0
147
0.0
147
0.0
147
0.0
147
1.0
  0
MATERIAL
  5
21
102
{ACAD_XDICTIONARY
360
22
102
}
102
{ACAD_REACTORS
330
10
102
}
330
10
100
AcDbMaterial
  1
Global
 72
     0
 43
0.0208333333333333
 43
0.0
 43
0.0
 43
0.0
 43
0.0
 43
0.0208333333333333
 43
0.0
 43
0.0
 43
0.0
 43
0.0
 43
1.0
 43
0.0
 43
0.0
 43
0.0
 43
0.0
 43
1.0
 77
     0
 47
0.0208333333333333
 47
0.0
 47
0.0
 47
0.0
 47
0.0
 47
0.0208333333333333
 47
0.0
 47
0.0
 47
0.0
 47
0.0
 47
1.0
 47
0.0
 47
0.0
 47
0.0
 47
0.0
 47
1.0
171
     0
 49
0.0208333333333333
 49
0.0
 49
0.0
 49
0.0
 49
0.0
 49
0.0208333333333333
 49
0.0
 49
0.0
 49
0.0
 49
0.0
 49
1.0
 49
0.0
 49
0.0
 49
0.0
 49
0.0
 49
1.0
175
     0
142
0.0208333333333333
142
0.0
142
0.0
142
0.0
142
0.0
142
0.0208333333333333
142
0.0
142
0.0
142
0.0
142
0.0
142
1.0
142
0.0
142
0.0
142
0.0
142
0.0
142
1.0
179
     0
144
0.0208333333333333
144
0.0
144
0.0
144
0.0
144
0.0
144
0.0208333333333333
144
0.0
144
0.0
144
0.0
144
0.0
144
1.0
144
0.0
144
0.0
144
0.0
144
0.0
144
1.0
147
0.0208333333333333
147
0.0
147
0.0
147
0.0
147
0.0
147
0.0208333333333333
147
0.0
147
0.0
147
0.0
147
0.0
147
1.0
147
0.0
147
0.0
147
0.0
147
0.0
147
1.0
  0
MLEADERSTYLE
  5
67
102
{ACAD_REACTORS
330
66
102
}
330
66
100
AcDbMLeaderStyle
179
     2
170
     2
171
     1
172
     0
 90
        2
 40
0.0
 41
0.0
173
     1
 91
-1056964608
340
5B
 92
       -2
290
     1
 42
0.09
291
     1
 43
0.36
  3
Standard
 44
0.18
300

342
55
174
     1
178
     6
175
     1
176
     0
 93
-1056964608
 45
0.18
292
     0
297
     0
 46
0.18
 94
-1056964608
 47
1.0
 49
1.0
140
1.0
293
     1
141
0.0
294
     1
177
     0
142
1.0
295
     1
296
     0
143
0.125
271
     0
272
     9
273
     9
298
     1
  0
MLINESTYLE
  5
60
102
{ACAD_REACTORS
330
5F
102
}
330
5F
100
AcDbMlineStyle
  2
STANDARD
 70
     0
  3

 62
   256
 51
90.0
 52
90.0
 71
     2
 49
0.5
 62
   256
  6
BYLAYER
 49
-0.5
 62
   256
  6
BYLAYER
  0
ACDBPLACEHOLDER
  5
F
102
{ACAD_REACTORS
330
E
102
}
330
E
  0
SCALE
  5
43
102
{ACAD_REACTORS
330
42
102
}
330
42
100
AcDbScale
 70
     0
300
1:1
140
1.0
141
1.0
290
     1
  0
SCALE
  5
44
102
{ACAD_REACTORS
330
42
102
}
330
42
100
AcDbScale
 70
     0
300
1/128" = 1'-0"
140
0.0078125
141
12.0
290
     0
  0
SCALE
  5
45
102
{ACAD_REACTORS
330
42
102
}
330
42
100
AcDbScale
 70
     0
300
1/64" = 1'-0"
140
0.015625
141
12.0
290
     0
  0
SCALE
  5
46
102
{ACAD_REACTORS
330
42
102
}
330
42
100
AcDbScale
 70
     0
300
1/32" = 1'-0"
140
0.03125
141
12.0
290
     0
  0
SCALE
  5
47
102
{ACAD_REACTORS
330
42
102
}
330
42
100
AcDbScale
 70
     0
300
1/16" = 1'-0"
140
0.0625
141
12.0
290
     0
  0
SCALE
  5
48
102
{ACAD_REACTORS
330
42
102
}
330
42
100
AcDbScale
 70
     0
300
3/32" = 1'-0"
140
0.09375
141
12.0
290
     0
  0
SCALE
  5
49
102
{ACAD_REACTORS
330
42
102
}
330
42
100
AcDbScale
 70
     0
300
1/8" = 1'-0"
140
0.125
141
12.0
290
     0
  0
SCALE
  5
4A
102
{ACAD_REACTORS
330
42
102
}
330
42
100
AcDbScale
 70
     0
300
3/16" = 1'-0"
140
0.1875
141
12.0
290
     0
  0
SCALE
  5
4B
102
{ACAD_REACTORS
330
42
102
}
330
42
100
AcDbScale
 70
     0
300
1/4" = 1'-0"
140
0.25
141
12.0
290
     0
  0
SCALE
  5
4C
102
{ACAD_REACTORS
330
42
102
}
330
42
100
AcDbScale
 70
     0
300
3/8" = 1'-0"
140
0.375
141
12.0
290
     0
  0
SCALE
  5
4D
102
{ACAD_REACTORS
330
42
102
}
330
42
100
AcDbScale
 70
     0
300
1/2" = 1'-0"
140
0.5
141
12.0
290
     0
  0
SCALE
  5
4E
102
{ACAD_REACTORS
330
42
102
}
330
42
100
AcDbScale
 70
     0
300
3/4" = 1'-0"
140
0.75
141
12.0
290
     0
  0
SCALE
  5
4F
102
{ACAD_REACTORS
330
42
102
}
330
42
100
AcDbScale
 70
     0
300
1" = 1'-0"
140
1.0
141
12.0
290
     0
  0
SCALE
  5
50
102
{ACAD_REACTORS
330
42
102
}
330
42
100
AcDbScale
 70
     0
300
1-1/2" = 1'-0"
140
1.5
141
12.0
290
     0
  0
SCALE
  5
51
102
{ACAD_REACTORS
330
42
102
}
330
42
100
AcDbScale
 70
     0
300
3" = 1'-0"
140
3.0
141
12.0
290
     0
  0
SCALE
  5
52
102
{ACAD_REACTORS
330
42
102
}
330
42
100
AcDbScale
 70
     0
300
6" = 1'-0"
140
6.0
141
12.0
290
     0
  0
SCALE
  5
53
102
{ACAD_REACTORS
330
42
102
}
330
42
100
AcDbScale
 70
     0
300
1'-0" = 1'-0"
140
12.0
141
12.0
290
     0
  0
ACDBSECTIONVIEWSTYLE
  5
69
102
{ACAD_REACTORS
330
68
102
}
330
68
100
AcDbModelDocViewStyle
 70
     0
  3
Imperial24
290
     1
300
Imperial24
 90
        0
100
AcDbSectionViewStyle
 70
     0
 71
     0
 90
       78
 71
     1
340
55
 62
   256
 40
0.24
340
0
340
0
 62
   256
 40
0.24
300
I, O, Q, S, X, Z
 40
0.48
 90
        3
 40
0.18
 90
        1
 71
     2
340
5D
 90
       25
 62
   256
340
5D
 90
       50
 62
   256
 40
0.24
 40
0.0
 40
0.24
 71
     3
340
55
 62
   256
 40
0.24
 90
        1
 40
0.75
 90
        1
300
%<\AcVar ViewType \f "%tc1">% %<\AcVar ViewSectionStartId>%-%<\AcVar ViewSectionEndId>%\PSCALE %<\AcVar ViewScale \f "%sn">%
 71
     4
 62
   256
 62
   257
300
ANSI31
 40
1.0
 90
        0
290
     0
290
     0
 90
        6
 40
0.0
 40
1.570796326794896
 40
0.2617993877991494
 40
1.308996938995747
 40
-0.2617993877991494
 40
1.832595714594046
  0
TABLESTYLE
  5
65
102
{ACAD_XDICTIONARY
360
197
102
}
102
{ACAD_REACTORS
330
64
102
}
330
64
100
AcDbTableStyle
280
     0
  3
Standard
 70
     0
 71
     0
 40
0.06
 41
0.06
280
     0
281
     0
  7
Standard
140
0.18
170
     2
 62
     0
 63
     7
283
     0
 90
      512
 91
        0
  1

274
    -2
284
     1
 64
     0
275
    -2
285
     1
 65
     0
276
    -2
286
     1
 66
     0
277
    -2
287
     1
 67
     0
278
    -2
288
     1
 68
     0
279
    -2
289
     1
 69
     0
  7
Standard
140
0.25
170
     5
 62
     0
 63
     7
283
     0
 90
      512
 91
        0
  1

274
    -2
284
     1
 64
     0
275
    -2
285
     1
 65
     0
276
    -2
286
     1
 66
     0
277
    -2
287
     1
 67
     0
278
    -2
288
     1
 68
     0
279
    -2
289
     1
 69
     0
  7
Standard
140
0.18
170
     5
 62
     0
 63
     7
283
     0
 90
      512
 91
        0
  1

274
    -2
284
     1
 64
     0
275
    -2
285
     1
 65
     0
276
    -2
286
     1
 66
     0
277
    -2
287
     1
 67
     0
278
    -2
288
     1
 68
     0
279
    -2
289
     1
 69
     0
  0
VISUALSTYLE
  5
2F
102
{ACAD_REACTORS
330
29
102
}
330
29
100
AcDbVisualStyle
  2
2dWireframe
 70
     4
177
     3
291
     0
 70
    58
 90
        0
176
     1
 90
        2
176
     1
 90
        0
176
     1
 90
        0
176
     1
 40
0.6
176
     1
 40
30.0
176
     1
 62
     7
420
 16777215
176
     1
 90
        1
176
     1
 90
        4
176
     1
 62
     7
176
     1
 62
   257
176
     1
 90
        1
176
     1
 90
        1
176
     1
 40
1.0
176
     1
 90
        0
176
     1
 62
   257
176
     1
 40
1.0
176
     1
 90
        1
176
     1
 90
        6
176
     1
 90
        2
176
     1
 62
     7
176
     1
 90
        5
176
     1
 90
        0
176
     1
 90
        0
176
     1
290
     0
176
     1
 90
        1
176
     1
 40
0.0
176
     1
 90
        0
176
     1
290
     1
176
     1
290
     1
176
     1
290
     0
176
     1
290
     0
176
     1
290
     0
176
     1
290
     0
176
     1
290
     0
176
     1
290
     0
176
     1
290
     0
176
     1
 90
       50
176
     1
 40
0.0
176
     1
 40
1.0
176
     1
 90
        0
176
     1
 62
    18
420
        0
176
     1
 90
       50
176
     1
 90
        3
176
     1
 62
     5
420
      255
176
     1
290
     0
176
     1
 90
       50
176
     1
 90
       50
176
     1
 90
       50
176
     1
290
     0
176
     1
 90
       50
176
     1
 62
   256
176
     0
 40
1.0
176
     0
 90
        2
176
     1
  1
strokes_ogs.tif
176
     1
290
     0
176
     1
 40
1.0
176
     1
 40
1.0
176
     1
  0
VISUALSTYLE
  5
2E
102
{ACAD_REACTORS
330
29
102
}
330
29
100
AcDbVisualStyle
  2
Basic
 70
     7
177
     3
291
     1
 70
    58
 90
        1
176
     1
 90
        0
176
     1
 90
        1
176
     1
 90
        0
176
     1
 40
0.6
176
     1
 40
30.0
176
     1
 62
     7
420
 16777215
176
     1
 90
        0
176
     1
 90
        4
176
     1
 62
     7
176
     1
 62
   257
176
     1
 90
        1
176
     1
 90
        1
176
     1
 40
1.0
176
     1
 90
        8
176
     1
 62
     7
176
     1
 40
1.0
176
     1
 90
        1
176
     1
 90
        6
176
     1
 90
        2
176
     1
 62
     7
176
     1
 90
        5
176
     1
 90
        0
176
     1
 90
        0
176
     1
290
     0
176
     1
 90
        1
176
     1
 40
0.0
176
     1
 90
        0
176
     1
290
     0
176
     1
290
     1
176
     1
290
     1
176
     1
290
     0
176
     1
290
     0
176
     1
290
     0
176
     1
290
     0
176
     1
290
     0
176
     1
290
     0
176
     1
 90
       50
176
     1
 40
0.0
176
     1
 40
1.0
176
     1
 90
        0
176
     1
 62
    18
420
        0
176
     1
 90
       50
176
     1
 90
        3
176
     1
 62
     5
420
      255
176
     1
290
     0
176
     1
 90
       50
176
     1
 90
       50
176
     1
 90
       50
176
     1
290
     0
176
     1
 90
       50
176
     1
 62
   256
176
     0
 40
1.0
176
     0
 90
        2
176
     1
  1
strokes_ogs.tif
176
     1
290
     0
176
     1
 40
1.0
176
     1
 40
1.0
176
     1
  0
VISUALSTYLE
  5
35
102
{ACAD_REACTORS
330
29
102
}
330
29
100
AcDbVisualStyle
  2
Brighten
 70
    12
177
     3
291
     1
 70
    58
 90
        2
176
     1
 90
        2
176
     1
 90
        0
176
     1
 90
        0
176
     1
 40
0.6
176
     1
 40
30.0
176
     1
 62
     7
420
 16777215
176
     1
 90
        1
176
     1
 90
        4
176
     1
 62
     7
176
     1
 62
   257
176
     1
 90
        1
176
     1
 90
        1
176
     1
 40
1.0
176
     1
 90
        8
176
     1
 62
     7
176
     1
 40
1.0
176
     1
 90
        1
176
     1
 90
        6
176
     1
 90
        2
176
     1
 62
     7
176
     1
 90
        5
176
     1
 90
        0
176
     1
 90
        0
176
     1
290
     0
176
     1
 90
        1
176
     1
 40
50.0
176
     1
 90
        0
176
     1
290
     0
176
     1
290
     1
176
     1
290
     1
176
     1
290
     0
176
     1
290
     0
176
     1
290
     0
176
     1
290
     0
176
     1
290
     0
176
     1
290
     0
176
     1
 90
       50
176
     1
 40
0.0
176
     1
 40
1.0
176
     1
 90
        0
176
     1
 62
    18
420
        0
176
     1
 90
       50
176
     1
 90
        3
176
     1
 62
     5
420
      255
176
     1
290
     0
176
     1
 90
       50
176
     1
 90
       50
176
     1
 90
       50
176
     1
290
     0
176
     1
 90
       50
176
     1
 62
   256
176
     0
 40
1.0
176
     0
 90
        2
176
     1
  1
strokes_ogs.tif
176
     1
290
     0
176
     1
 40
1.0
176
     1
 40
1.0
176
     1
  0
VISUALSTYLE
  5
39
102
{ACAD_REACTORS
330
29
102
}
330
29
100
AcDbVisualStyle
  2
ColorChange
 70
    16
177
     3
291
     1
 70
    58
 90
        2
176
     1
 90
        2
176
     1
 90
        3
176
     1
 90
        0
176
     1
 40
0.6
176
     1
 40
30.0
176
     1
 62
     8
420
  8421504
176
     1
 90
        1
176
     1
 90
        4
176
     1
 62
     7
176
     1
 62
   257
176
     1
 90
        1
176
     1
 90
        1
176
     1
 40
1.0
176
     1
 90
        8
176
     1
 62
     8
420
  8421504
176
     1
 40
1.0
176
     1
 90
        1
176
     1
 90
        6
176
     1
 90
        2
176
     1
 62
     7
176
     1
 90
        5
176
     1
 90
        0
176
     1
 90
        0
176
     1
290
     0
176
     1
 90
        1
176
     1
 40
0.0
176
     1
 90
        0
176
     1
290
     0
176
     1
290
     1
176
     1
290
     1
176
     1
290
     0
176
     1
290
     0
176
     1
290
     0
176
     1
290
     0
176
     1
290
     0
176
     1
290
     0
176
     1
 90
       50
176
     1
 40
0.0
176
     1
 40
1.0
176
     1
 90
        0
176
     1
 62
    18
420
        0
176
     1
 90
       50
176
     1
 90
        3
176
     1
 62
     5
420
      255
176
     1
290
     0
176
     1
 90
       50
176
     1
 90
       50
176
     1
 90
       50
176
     1
290
     0
176
     1
 90
       50
176
     1
 62
   256
176
     0
 40
1.0
176
     0
 90
        2
176
     1
  1
strokes_ogs.tif
176
     1
290
     0
176
     1
 40
1.0
176
     1
 40
1.0
176
     1
  0
VISUALSTYLE
  5
32
102
{ACAD_REACTORS
330
29
102
}
330
29
100
AcDbVisualStyle
  2
Conceptual
 70
     9
177
     3
291
     0
 70
    58
 90
        3
176
     1
 90
        2
176
     1
 90
        0
176
     1
 90
        0
176
     1
 40
0.6
176
     1
 40
30.0
176
     1
 62
     7
420
 16777215
176
     1
 90
        2
176
     1
 90
        2
176
     1
 62
     7
176
     1
 62
   257
176
     1
 90
        1
176
     1
 90
        1
176
     1
 40
179.0
176
     1
 90
        8
176
     1
 62
     7
176
     1
 40
1.0
176
     1
 90
        1
176
     1
 90
        6
176
     1
 90
        2
176
     1
 62
     7
176
     1
 90
        3
176
     1
 90
        0
176
     1
 90
        0
176
     1
290
     0
176
     1
 90
        1
176
     1
 40
0.0
176
     1
 90
        0
176
     1
290
     0
176
     1
290
     1
176
     1
290
     1
176
     1
290
     0
176
     1
290
     0
176
     1
290
     0
176
     1
290
     0
176
     1
290
     0
176
     1
290
     0
176
     1
 90
       50
176
     1
 40
0.0
176
     1
 40
1.0
176
     1
 90
        0
176
     1
 62
    18
420
        0
176
     1
 90
       50
176
     1
 90
        3
176
     1
 62
     5
420
      255
176
     1
290
     0
176
     1
 90
       50
176
     1
 90
       50
176
     1
 90
       50
176
     1
290
     0
176
     1
 90
       50
176
     1
 62
   256
176
     0
 40
1.0
176
     0
 90
        2
176
     1
  1
strokes_ogs.tif
176
     1
290
     0
176
     1
 40
1.0
176
     1
 40
1.0
176
     1
  0
VISUALSTYLE
  5
34
102
{ACAD_REACTORS
330
29
102
}
330
29
100
AcDbVisualStyle
  2
Dim
 70
    11
177
     3
291
     1
 70
    58
 90
        2
176
     1
 90
        2
176
     1
 90
        0
176
     1
 90
        0
176
     1
 40
0.6
176
     1
 40
30.0
176
     1
 62
     7
420
 16777215
176
     1
 90
        1
176
     1
 90
        4
176
     1
 62
     7
176
     1
 62
   257
176
     1
 90
        1
176
     1
 90
        1
176
     1
 40
1.0
176
     1
 90
        8
176
     1
 62
     7
176
     1
 40
1.0
176
     1
 90
        1
176
     1
 90
        6
176
     1
 90
        2
176
     1
 62
     7
176
     1
 90
        5
176
     1
 90
        0
176
     1
 90
        0
176
     1
290
     0
176
     1
 90
        1
176
     1
 40
-50.0
176
     1
 90
        0
176
     1
290
     0
176
     1
290
     1
176
     1
290
     1
176
     1
290
     0
176
     1
290
     0
176
     1
290
     0
176
     1
290
     0
176
     1
290
     0
176
     1
290
     0
176
     1
 90
       50
176
     1
 40
0.0
176
     1
 40
1.0
176
     1
 90
        0
176
     1
 62
    18
420
        0
176
     1
 90
       50
176
     1
 90
        3
176
     1
 62
     5
420
      255
176
     1
290
     0
176
     1
 90
       50
176
     1
 90
       50
176
     1
 90
       50
176
     1
290
     0
176
     1
 90
       50
176
     1
 62
   256
176
     0
 40
1.0
176
     0
 90
        2
176
     1
  1
strokes_ogs.tif
176
     1
290
     0
176
     1
 40
1.0
176
     1
 40
1.0
176
     1
  0
VISUALSTYLE
  5
41
102
{ACAD_REACTORS
330
29
102
}
330
29
100
AcDbVisualStyle
  2
EdgeColorOff
 70
    22
177
     3
291
     1
 70
    58
 90
        2
176
     0
 90
        2
176
     0
 90
        0
176
     0
 90
        0
176
     0
 40
0.6
176
     0
 40
30.0
176
     0
 62
     7
420
 16777215
176
     0
 90
        1
176
     0
 90
        4
176
     0
 62
     7
176
     0
 62
   257
176
     0
 90
        1
176
     0
 90
        1
176
     0
 40
1.0
176
     0
 90
        8
176
     2
 62
     7
176
     0
 40
1.0
176
     0
 90
        1
176
     0
 90
        6
176
     0
 90
        2
176
     0
 62
     7
176
     0
 90
        5
176
     0
 90
        0
176
     0
 90
        0
176
     0
290
     0
176
     0
 90
        1
176
     0
 40
0.0
176
     0
 90
        0
176
     0
290
     0
176
     0
290
     1
176
     0
290
     1
176
     0
290
     0
176
     0
290
     0
176
     0
290
     0
176
     0
290
     0
176
     0
290
     0
176
     0
290
     0
176
     0
 90
       50
176
     0
 40
0.0
176
     0
 40
1.0
176
     0
 90
        0
176
     0
 62
    18
420
        0
176
     0
 90
       50
176
     0
 90
        3
176
     0
 62
     5
420
      255
176
     0
290
     0
176
     0
 90
       50
176
     0
 90
       50
176
     0
 90
       50
176
     0
290
     0
176
     0
 90
       50
176
     0
 62
   256
176
     0
 40
1.0
176
     0
 90
        2
176
     0
  1
strokes_ogs.tif
176
     0
290
     0
176
     0
 40
1.0
176
     0
 40
1.0
176
     0
  0
VISUALSTYLE
  5
38
102
{ACAD_REACTORS
330
29
102
}
330
29
100
AcDbVisualStyle
  2
Facepattern
 70
    15
177
     3
291
     1
 70
    58
 90
        2
176
     1
 90
        2
176
     1
 90
        0
176
     1
 90
        0
176
     1
 40
0.6
176
     1
 40
30.0
176
     1
 62
     7
420
 16777215
176
     1
 90
        1
176
     1
 90
        4
176
     1
 62
     7
176
     1
 62
   257
176
     1
 90
        1
176
     1
 90
        1
176
     1
 40
1.0
176
     1
 90
        8
176
     1
 62
     7
176
     1
 40
1.0
176
     1
 90
        1
176
     1
 90
        6
176
     1
 90
        2
176
     1
 62
     7
176
     1
 90
        5
176
     1
 90
        0
176
     1
 90
        0
176
     1
290
     0
176
     1
 90
        1
176
     1
 40
0.0
176
     1
 90
        0
176
     1
290
     0
176
     1
290
     1
176
     1
290
     1
176
     1
290
     0
176
     1
290
     0
176
     1
290
     0
176
     1
290
     0
176
     1
290
     0
176
     1
290
     0
176
     1
 90
       50
176
     1
 40
0.0
176
     1
 40
1.0
176
     1
 90
        0
176
     1
 62
    18
420
        0
176
     1
 90
       50
176
     1
 90
        3
176
     1
 62
     5
420
      255
176
     1
290
     0
176
     1
 90
       50
176
     1
 90
       50
176
     1
 90
       50
176
     1
290
     0
176
     1
 90
       50
176
     1
 62
   256
176
     0
 40
1.0
176
     0
 90
        2
176
     1
  1
strokes_ogs.tif
176
     1
290
     0
176
     1
 40
1.0
176
     1
 40
1.0
176
     1
  0
VISUALSTYLE
  5
2A
102
{ACAD_REACTORS
330
29
102
}
330
29
100
AcDbVisualStyle
  2
Flat
 70
     0
177
     3
291
     1
 70
    58
 90
        2
176
     1
 90
        1
176
     1
 90
        1
176
     1
 90
        2
176
     1
 40
0.6
176
     1
 40
30.0
176
     1
 62
     7
420
 16777215
176
     1
 90
        0
176
     1
 90
        0
176
     1
 62
     7
176
     1
 62
   257
176
     1
 90
        1
176
     1
 90
        1
176
     1
 40
1.0
176
     1
 90
        8
176
     1
 62
     7
176
     1
 40
1.0
176
     1
 90
        1
176
     1
 90
        6
176
     1
 90
        2
176
     1
 62
     7
176
     1
 90
        5
176
     1
 90
        0
176
     1
 90
        0
176
     1
290
     0
176
     1
 90
       13
176
     1
 40
0.0
176
     1
 90
        0
176
     1
290
     0
176
     1
290
     1
176
     1
290
     1
176
     1
290
     0
176
     1
290
     0
176
     1
290
     0
176
     1
290
     0
176
     1
290
     0
176
     1
290
     0
176
     1
 90
       50
176
     1
 40
0.0
176
     1
 40
1.0
176
     1
 90
        0
176
     1
 62
    18
420
        0
176
     1
 90
       50
176
     1
 90
        3
176
     1
 62
     5
420
      255
176
     1
290
     0
176
     1
 90
       50
176
     1
 90
       50
176
     1
 90
       50
176
     1
290
     0
176
     1
 90
       50
176
     1
 62
   256
176
     0
 40
1.0
176
     0
 90
        2
176
     1
  1
strokes_ogs.tif
176
     1
290
     0
176
     1
 40
1.0
176
     1
 40
1.0
176
     1
  0
VISUALSTYLE
  5
2B
102
{ACAD_REACTORS
330
29
102
}
330
29
100
AcDbVisualStyle
  2
FlatWithEdges
 70
     1
177
     3
291
     1
 70
    58
 90
        2
176
     1
 90
        1
176
     1
 90
        1
176
     1
 90
        2
176
     1
 40
0.6
176
     1
 40
30.0
176
     1
 62
     7
420
 16777215
176
     1
 90
        1
176
     1
 90
        0
176
     1
 62
     7
176
     1
 62
   257
176
     1
 90
        1
176
     1
 90
        1
176
     1
 40
1.0
176
     1
 90
        0
176
     1
 62
   257
176
     1
 40
1.0
176
     1
 90
        1
176
     1
 90
        6
176
     1
 90
        2
176
     1
 62
     7
176
     1
 90
        5
176
     1
 90
        0
176
     1
 90
        0
176
     1
290
     0
176
     1
 90
       13
176
     1
 40
0.0
176
     1
 90
        0
176
     1
290
     0
176
     1
290
     1
176
     1
290
     1
176
     1
290
     0
176
     1
290
     0
176
     1
290
     0
176
     1
290
     0
176
     1
290
     0
176
     1
290
     0
176
     1
 90
       50
176
     1
 40
0.0
176
     1
 40
1.0
176
     1
 90
        0
176
     1
 62
    18
420
        0
176
     1
 90
       50
176
     1
 90
        3
176
     1
 62
     5
420
      255
176
     1
290
     0
176
     1
 90
       50
176
     1
 90
       50
176
     1
 90
       50
176
     1
290
     0
176
     1
 90
       50
176
     1
 62
   256
176
     0
 40
1.0
176
     0
 90
        2
176
     1
  1
strokes_ogs.tif
176
     1
290
     0
176
     1
 40
1.0
176
     1
 40
1.0
176
     1
  0
VISUALSTYLE
  5
2C
102
{ACAD_REACTORS
330
29
102
}
330
29
100
AcDbVisualStyle
  2
Gouraud
 70
     2
177
     3
291
     1
 70
    58
 90
        2
176
     1
 90
        2
176
     1
 90
        1
176
     1
 90
        2
176
     1
 40
0.6
176
     1
 40
30.0
176
     1
 62
     7
420
 16777215
176
     1
 90
        0
176
     1
 90
        0
176
     1
 62
     7
176
     1
 62
   257
176
     1
 90
        1
176
     1
 90
        1
176
     1
 40
1.0
176
     1
 90
        0
176
     1
 62
     7
176
     1
 40
1.0
176
     1
 90
        1
176
     1
 90
        6
176
     1
 90
        2
176
     1
 62
     7
176
     1
 90
        5
176
     1
 90
        0
176
     1
 90
        0
176
     1
290
     0
176
     1
 90
       13
176
     1
 40
0.0
176
     1
 90
        0
176
     1
290
     0
176
     1
290
     1
176
     1
290
     1
176
     1
290
     0
176
     1
290
     0
176
     1
290
     0
176
     1
290
     0
176
     1
290
     0
176
     1
290
     0
176
     1
 90
       50
176
     1
 40
0.0
176
     1
 40
1.0
176
     1
 90
        0
176
     1
 62
    18
420
        0
176
     1
 90
       50
176
     1
 90
        3
176
     1
 62
     5
420
      255
176
     1
290
     0
176
     1
 90
       50
176
     1
 90
       50
176
     1
 90
       50
176
     1
290
     0
176
     1
 90
       50
176
     1
 62
   256
176
     0
 40
1.0
176
     0
 90
        2
176
     1
  1
strokes_ogs.tif
176
     1
290
     0
176
     1
 40
1.0
176
     1
 40
1.0
176
     1
  0
VISUALSTYLE
  5
2D
102
{ACAD_REACTORS
330
29
102
}
330
29
100
AcDbVisualStyle
  2
GouraudWithEdges
 70
     3
177
     3
291
     1
 70
    58
 90
        2
176
     1
 90
        2
176
     1
 90
        1
176
     1
 90
        2
176
     1
 40
0.6
176
     1
 40
30.0
176
     1
 62
     7
420
 16777215
176
     1
 90
        1
176
     1
 90
        0
176
     1
 62
     7
176
     1
 62
   257
176
     1
 90
        1
176
     1
 90
        1
176
     1
 40
1.0
176
     1
 90
        0
176
     1
 62
   257
176
     1
 40
1.0
176
     1
 90
        1
176
     1
 90
        6
176
     1
 90
        2
176
     1
 62
     7
176
     1
 90
        5
176
     1
 90
        0
176
     1
 90
        0
176
     1
290
     0
176
     1
 90
       13
176
     1
 40
0.0
176
     1
 90
        0
176
     1
290
     0
176
     1
290
     1
176
     1
290
     1
176
     1
290
     0
176
     1
290
     0
176
     1
290
     0
176
     1
290
     0
176
     1
290
     0
176
     1
290
     0
176
     1
 90
       50
176
     1
 40
0.0
176
     1
 40
1.0
176
     1
 90
        0
176
     1
 62
    18
420
        0
176
     1
 90
       50
176
     1
 90
        3
176
     1
 62
     5
420
      255
176
     1
290
     0
176
     1
 90
       50
176
     1
 90
       50
176
     1
 90
       50
176
     1
290
     0
176
     1
 90
       50
176
     1
 62
   256
176
     0
 40
1.0
176
     0
 90
        2
176
     1
  1
strokes_ogs.tif
176
     1
290
     0
176
     1
 40
1.0
176
     1
 40
1.0
176
     1
  0
VISUALSTYLE
  5
31
102
{ACAD_REACTORS
330
29
102
}
330
29
100
AcDbVisualStyle
  2
Hidden
 70
     6
177
     3
291
     0
 70
    58
 90
        1
176
     1
 90
        2
176
     1
 90
        2
176
     1
 90
        0
176
     1
 40
0.6
176
     1
 40
30.0
176
     1
 62
     7
420
 16777215
176
     1
 90
        2
176
     1
 90
        2
176
     1
 62
     7
176
     1
 62
   257
176
     1
 90
        2
176
     1
 90
        1
176
     1
 40
40.0
176
     1
 90
        0
176
     1
 62
   257
176
     1
 40
1.0
176
     1
 90
        1
176
     1
 90
        6
176
     1
 90
        2
176
     1
 62
     7
176
     1
 90
        3
176
     1
 90
        0
176
     1
 90
        0
176
     1
290
     0
176
     1
 90
        1
176
     1
 40
0.0
176
     1
 90
        0
176
     1
290
     0
176
     1
290
     1
176
     1
290
     1
176
     1
290
     0
176
     1
290
     0
176
     1
290
     0
176
     1
290
     0
176
     1
290
     0
176
     1
290
     0
176
     1
 90
       50
176
     1
 40
0.0
176
     1
 40
1.0
176
     1
 90
        0
176
     1
 62
    18
420
        0
176
     1
 90
       50
176
     1
 90
        3
176
     1
 62
     5
420
      255
176
     1
290
     0
176
     1
 90
       50
176
     1
 90
       50
176
     1
 90
       50
176
     1
290
     0
176
     1
 90
       50
176
     1
 62
   256
176
     0
 40
1.0
176
     0
 90
        2
176
     1
  1
strokes_ogs.tif
176
     1
290
     0
176
     1
 40
1.0
176
     1
 40
1.0
176
     1
  0
VISUALSTYLE
  5
3F
102
{ACAD_REACTORS
330
29
102
}
330
29
100
AcDbVisualStyle
  2
JitterOff
 70
    20
177
     3
291
     1
 70
    58
 90
        2
176
     0
 90
        2
176
     0
 90
        0
176
     0
 90
        0
176
     0
 40
0.6
176
     0
 40
30.0
176
     0
 62
     7
420
 16777215
176
     0
 90
        1
176
     0
 90
        4
176
     0
 62
     7
176
     0
 62
   257
176
     0
 90
        1
176
     0
 90
        1
176
     0
 40
1.0
176
     0
 90
       10
176
     2
 62
     7
176
     0
 40
1.0
176
     0
 90
        1
176
     0
 90
        6
176
     0
 90
        2
176
     0
 62
     7
176
     0
 90
        5
176
     0
 90
        0
176
     0
 90
        0
176
     0
290
     0
176
     0
 90
        1
176
     0
 40
0.0
176
     0
 90
        0
176
     0
290
     0
176
     0
290
     1
176
     0
290
     1
176
     0
290
     0
176
     0
290
     0
176
     0
290
     0
176
     0
290
     0
176
     0
290
     0
176
     0
290
     0
176
     0
 90
       50
176
     0
 40
0.0
176
     0
 40
1.0
176
     0
 90
        0
176
     0
 62
    18
420
        0
176
     0
 90
       50
176
     0
 90
        3
176
     0
 62
     5
420
      255
176
     0
290
     0
176
     0
 90
       50
176
     0
 90
       50
176
     0
 90
       50
176
     0
290
     0
176
     0
 90
       50
176
     0
 62
   256
176
     0
 40
1.0
176
     0
 90
        2
176
     0
  1
strokes_ogs.tif
176
     0
290
     0
176
     0
 40
1.0
176
     0
 40
1.0
176
     0
  0
VISUALSTYLE
  5
37
102
{ACAD_REACTORS
330
29
102
}
330
29
100
AcDbVisualStyle
  2
Linepattern
 70
    14
177
     3
291
     1
 70
    58
 90
        2
176
     1
 90
        2
176
     1
 90
        0
176
     1
 90
        0
176
     1
 40
0.6
176
     1
 40
30.0
176
     1
 62
     7
420
 16777215
176
     1
 90
        1
176
     1
 90
        4
176
     1
 62
     7
176
     1
 62
   257
176
     1
 90
        7
176
     1
 90
        7
176
     1
 40
1.0
176
     1
 90
        8
176
     1
 62
     7
176
     1
 40
1.0
176
     1
 90
        1
176
     1
 90
        6
176
     1
 90
        2
176
     1
 62
     7
176
     1
 90
        5
176
     1
 90
        0
176
     1
 90
        0
176
     1
290
     0
176
     1
 90
        1
176
     1
 40
0.0
176
     1
 90
        0
176
     1
290
     0
176
     1
290
     1
176
     1
290
     1
176
     1
290
     0
176
     1
290
     0
176
     1
290
     0
176
     1
290
     0
176
     1
290
     0
176
     1
290
     0
176
     1
 90
       50
176
     1
 40
0.0
176
     1
 40
1.0
176
     1
 90
        0
176
     1
 62
    18
420
        0
176
     1
 90
       50
176
     1
 90
        3
176
     1
 62
     5
420
      255
176
     1
290
     0
176
     1
 90
       50
176
     1
 90
       50
176
     1
 90
       50
176
     1
290
     0
176
     1
 90
       50
176
     1
 62
   256
176
     0
 40
1.0
176
     0
 90
        2
176
     1
  1
strokes_ogs.tif
176
     1
290
     0
176
     1
 40
1.0
176
     1
 40
1.0
176
     1
  0
VISUALSTYLE
  5
40
102
{ACAD_REACTORS
330
29
102
}
330
29
100
AcDbVisualStyle
  2
OverhangOff
 70
    21
177
     3
291
     1
 70
    58
 90
        2
176
     0
 90
        2
176
     0
 90
        0
176
     0
 90
        0
176
     0
 40
0.6
176
     0
 40
30.0
176
     0
 62
     7
420
 16777215
176
     0
 90
        1
176
     0
 90
        4
176
     0
 62
     7
176
     0
 62
   257
176
     0
 90
        1
176
     0
 90
        1
176
     0
 40
1.0
176
     0
 90
        9
176
     2
 62
     7
176
     0
 40
1.0
176
     0
 90
        1
176
     0
 90
        6
176
     0
 90
        2
176
     0
 62
     7
176
     0
 90
        5
176
     0
 90
        0
176
     0
 90
        0
176
     0
290
     0
176
     0
 90
        1
176
     0
 40
0.0
176
     0
 90
        0
176
     0
290
     0
176
     0
290
     1
176
     0
290
     1
176
     0
290
     0
176
     0
290
     0
176
     0
290
     0
176
     0
290
     0
176
     0
290
     0
176
     0
290
     0
176
     0
 90
       50
176
     0
 40
0.0
176
     0
 40
1.0
176
     0
 90
        0
176
     0
 62
    18
420
        0
176
     0
 90
       50
176
     0
 90
        3
176
     0
 62
     5
420
      255
176
     0
290
     0
176
     0
 90
       50
176
     0
 90
       50
176
     0
 90
       50
176
     0
290
     0
176
     0
 90
       50
176
     0
 62
   256
176
     0
 40
1.0
176
     0
 90
        2
176
     0
  1
strokes_ogs.tif
176
     0
290
     0
176
     0
 40
1.0
176
     0
 40
1.0
176
     0
  0
VISUALSTYLE
  5
33
102
{ACAD_REACTORS
330
29
102
}
330
29
100
AcDbVisualStyle
  2
Realistic
 70
     8
177
     3
291
     0
 70
    58
 90
        2
176
     1
 90
        3
176
     1
 90
        0
176
     1
 90
        2
176
     1
 40
0.6
176
     1
 40
30.0
176
     1
 62
     7
420
 16777215
176
     1
 90
        0
176
     1
 90
        0
176
     1
 62
     7
176
     1
 62
   257
176
     1
 90
        1
176
     1
 90
        1
176
     1
 40
1.0
176
     1
 90
        8
176
     1
 62
   257
176
     1
 40
1.0
176
     1
 90
        1
176
     1
 90
        6
176
     1
 90
        2
176
     1
 62
     7
176
     1
 90
        3
176
     1
 90
        0
176
     1
 90
        0
176
     1
290
     0
176
     1
 90
       13
176
     1
 40
0.0
176
     1
 90
        0
176
     1
290
     0
176
     1
290
     1
176
     1
290
     1
176
     1
290
     0
176
     1
290
     0
176
     1
290
     0
176
     1
290
     0
176
     1
290
     0
176
     1
290
     0
176
     1
 90
       50
176
     1
 40
0.0
176
     1
 40
1.0
176
     1
 90
        0
176
     1
 62
    18
420
        0
176
     1
 90
       50
176
     1
 90
        3
176
     1
 62
     5
420
      255
176
     1
290
     0
176
     1
 90
       50
176
     1
 90
       50
176
     1
 90
       50
176
     1
290
     0
176
     1
 90
       50
176
     1
 62
   256
176
     0
 40
1.0
176
     0
 90
        2
176
     1
  1
strokes_ogs.tif
176
     1
290
     0
176
     1
 40
1.0
176
     1
 40
1.0
176
     1
  0
VISUALSTYLE
  5
3E
102
{ACAD_REACTORS
330
29
102
}
330
29
100
AcDbVisualStyle
  2
Shaded
 70
    27
177
     3
291
     0
 70
    58
 90
        2
176
     1
 90
        2
176
     1
 90
        1
176
     1
 90
        2
176
     1
 40
0.6
176
     1
 40
30.0
176
     1
 62
     7
420
 16777215
176
     1
 90
        0
176
     1
 90
        4
176
     1
 62
     7
176
     1
 62
   257
176
     1
 90
        1
176
     1
 90
        1
176
     1
 40
1.0
176
     1
 90
        8
176
     1
 62
   257
176
     1
 40
1.0
176
     1
 90
        1
176
     1
 90
        6
176
     1
 90
        2
176
     1
 62
     8
420
  7895160
176
     1
 90
        3
176
     1
 90
        0
176
     1
 90
        0
176
     1
290
     0
176
     1
 90
        5
176
     1
 40
0.0
176
     1
 90
        0
176
     1
290
     0
176
     1
290
     1
176
     1
290
     1
176
     1
290
     0
176
     1
290
     0
176
     1
290
     0
176
     1
290
     0
176
     1
290
     0
176
     1
290
     0
176
     1
 90
       50
176
     1
 40
0.0
176
     1
 40
1.0
176
     1
 90
        0
176
     1
 62
    18
420
        0
176
     1
 90
       50
176
     1
 90
        3
176
     1
 62
     5
420
      255
176
     1
290
     0
176
     1
 90
       50
176
     1
 90
       50
176
     1
 90
       50
176
     1
290
     0
176
     1
 90
       50
176
     1
 62
   256
176
     0
 40
1.0
176
     0
 90
        2
176
     1
  1
strokes_ogs.tif
176
     1
290
     0
176
     1
 40
1.0
176
     1
 40
1.0
176
     1
  0
VISUALSTYLE
  5
3D
102
{ACAD_REACTORS
330
29
102
}
330
29
100
AcDbVisualStyle
  2
Shaded with edges
 70
    26
177
     3
291
     0
 70
    58
 90
        2
176
     1
 90
        2
176
     1
 90
        1
176
     1
 90
        2
176
     1
 40
0.6
176
     1
 40
30.0
176
     1
 62
     7
420
 16777215
176
     1
 90
        1
176
     1
 90
        2
176
     1
 62
     7
176
     1
 62
   257
176
     1
 90
        2
176
     1
 90
        1
176
     1
 40
1.0
176
     1
 90
        8
176
     1
 62
   257
176
     1
 40
1.0
176
     1
 90
        1
176
     1
 90
        6
176
     1
 90
        2
176
     1
 62
     7
176
     1
 90
        3
176
     1
 90
        0
176
     1
 90
        0
176
     1
290
     0
176
     1
 90
        5
176
     1
 40
0.0
176
     1
 90
        0
176
     1
290
     0
176
     1
290
     1
176
     1
290
     1
176
     1
290
     0
176
     1
290
     0
176
     1
290
     0
176
     1
290
     0
176
     1
290
     0
176
     1
290
     0
176
     1
 90
       50
176
     1
 40
0.0
176
     1
 40
1.0
176
     1
 90
        0
176
     1
 62
    18
420
        0
176
     1
 90
       50
176
     1
 90
        3
176
     1
 62
     5
420
      255
176
     1
290
     0
176
     1
 90
       50
176
     1
 90
       50
176
     1
 90
       50
176
     1
290
     0
176
     1
 90
       50
176
     1
 62
   256
176
     0
 40
1.0
176
     0
 90
        2
176
     1
  1
strokes_ogs.tif
176
     1
290
     0
176
     1
 40
1.0
176
     1
 40
1.0
176
     1
  0
VISUALSTYLE
  5
3A
102
{ACAD_REACTORS
330
29
102
}
330
29
100
AcDbVisualStyle
  2
Shades of Gray
 70
    23
177
     3
291
     0
 70
    58
 90
        2
176
     1
 90
        2
176
     1
 90
        3
176
     1
 90
        0
176
     1
 40
0.6
176
     1
 40
30.0
176
     1
 62
     7
420
 16777215
176
     1
 90
        2
176
     1
 90
        2
176
     1
 62
     7
176
     1
 62
     7
176
     1
 90
        1
176
     1
 90
        1
176
     1
 40
40.0
176
     1
 90
        8
176
     1
 62
     7
176
     1
 40
1.0
176
     1
 90
        1
176
     1
 90
        6
176
     1
 90
        2
176
     1
 62
     7
176
     1
 90
        3
176
     1
 90
        0
176
     1
 90
        0
176
     1
290
     0
176
     1
 90
        1
176
     1
 40
0.0
176
     1
 90
        0
176
     1
290
     0
176
     1
290
     1
176
     1
290
     1
176
     1
290
     0
176
     1
290
     0
176
     1
290
     0
176
     1
290
     0
176
     1
290
     0
176
     1
290
     0
176
     1
 90
       50
176
     1
 40
0.0
176
     1
 40
1.0
176
     1
 90
        0
176
     1
 62
    18
420
        0
176
     1
 90
       50
176
     1
 90
        3
176
     1
 62
     5
420
      255
176
     1
290
     0
176
     1
 90
       50
176
     1
 90
       50
176
     1
 90
       50
176
     1
290
     0
176
     1
 90
       50
176
     1
 62
   256
176
     0
 40
1.0
176
     0
 90
        2
176
     1
  1
strokes_ogs.tif
176
     1
290
     0
176
     1
 40
1.0
176
     1
 40
1.0
176
     1
  0
VISUALSTYLE
  5
3B
102
{ACAD_REACTORS
330
29
102
}
330
29
100
AcDbVisualStyle
  2
Sketchy
 70
    24
177
     3
291
     0
 70
    58
 90
        1
176
     1
 90
        2
176
     1
 90
        2
176
     1
 90
        0
176
     1
 40
0.6
176
     1
 40
30.0
176
     1
 62
     7
420
 16777215
176
     1
 90
        2
176
     1
 90
        2
176
     1
 62
     7
176
     1
 62
     7
176
     1
 90
        1
176
     1
 90
        1
176
     1
 40
40.0
176
     1
 90
       11
176
     1
 62
     7
176
     1
 40
1.0
176
     1
 90
        1
176
     1
 90
        6
176
     1
 90
        2
176
     1
 62
     7
176
     1
 90
        6
176
     1
 90
        0
176
     1
 90
        0
176
     1
290
     0
176
     1
 90
        1
176
     1
 40
0.0
176
     1
 90
        0
176
     1
290
     0
176
     1
290
     1
176
     1
290
     1
176
     1
290
     0
176
     1
290
     0
176
     1
290
     0
176
     1
290
     0
176
     1
290
     0
176
     1
290
     0
176
     1
 90
       50
176
     1
 40
0.0
176
     1
 40
1.0
176
     1
 90
        0
176
     1
 62
    18
420
        0
176
     1
 90
       50
176
     1
 90
        3
176
     1
 62
     5
420
      255
176
     1
290
     0
176
     1
 90
       50
176
     1
 90
       50
176
     1
 90
       50
176
     1
290
     0
176
     1
 90
       50
176
     1
 62
   256
176
     0
 40
1.0
176
     0
 90
        2
176
     1
  1
strokes_ogs.tif
176
     1
290
     0
176
     1
 40
1.0
176
     1
 40
1.0
176
     1
  0
VISUALSTYLE
  5
36
102
{ACAD_REACTORS
330
29
102
}
330
29
100
AcDbVisualStyle
  2
Thicken
 70
    13
177
     3
291
     1
 70
    58
 90
        2
176
     1
 90
        2
176
     1
 90
        0
176
     1
 90
        0
176
     1
 40
0.6
176
     1
 40
30.0
176
     1
 62
     7
420
 16777215
176
     1
 90
        1
176
     1
 90
        4
176
     1
 62
     7
176
     1
 62
   257
176
     1
 90
        1
176
     1
 90
        1
176
     1
 40
1.0
176
     1
 90
       12
176
     1
 62
     7
176
     1
 40
1.0
176
     1
 90
        1
176
     1
 90
        6
176
     1
 90
        2
176
     1
 62
     7
176
     1
 90
        5
176
     1
 90
        0
176
     1
 90
        0
176
     1
290
     0
176
     1
 90
        1
176
     1
 40
0.0
176
     1
 90
        0
176
     1
290
     0
176
     1
290
     1
176
     1
290
     1
176
     1
290
     0
176
     1
290
     0
176
     1
290
     0
176
     1
290
     0
176
     1
290
     0
176
     1
290
     0
176
     1
 90
       50
176
     1
 40
0.0
176
     1
 40
1.0
176
     1
 90
        0
176
     1
 62
    18
420
        0
176
     1
 90
       50
176
     1
 90
        3
176
     1
 62
     5
420
      255
176
     1
290
     0
176
     1
 90
       50
176
     1
 90
       50
176
     1
 90
       50
176
     1
290
     0
176
     1
 90
       50
176
     1
 62
   256
176
     0
 40
1.0
176
     0
 90
        2
176
     1
  1
strokes_ogs.tif
176
     1
290
     0
176
     1
 40
1.0
176
     1
 40
1.0
176
     1
  0
VISUALSTYLE
  5
30
102
{ACAD_REACTORS
330
29
102
}
330
29
100
AcDbVisualStyle
  2
Wireframe
 70
     5
177
     3
291
     0
 70
    58
 90
        0
176
     1
 90
        2
176
     1
 90
        0
176
     1
 90
        0
176
     1
 40
0.6
176
     1
 40
30.0
176
     1
 62
     7
420
 16777215
176
     1
 90
        1
176
     1
 90
        4
176
     1
 62
     7
176
     1
 62
   257
176
     1
 90
        1
176
     1
 90
        1
176
     1
 40
1.0
176
     1
 90
        0
176
     1
 62
   257
176
     1
 40
1.0
176
     1
 90
        1
176
     1
 90
        6
176
     1
 90
        2
176
     1
 62
     7
176
     1
 90
        3
176
     1
 90
        0
176
     1
 90
        0
176
     1
290
     0
176
     1
 90
        1
176
     1
 40
0.0
176
     1
 90
        0
176
     1
290
     0
176
     1
290
     1
176
     1
290
     1
176
     1
290
     0
176
     1
290
     0
176
     1
290
     0
176
     1
290
     0
176
     1
290
     0
176
     1
290
     0
176
     1
 90
       50
176
     1
 40
0.0
176
     1
 40
1.0
176
     1
 90
        0
176
     1
 62
    18
420
        0
176
     1
 90
       50
176
     1
 90
        3
176
     1
 62
     5
420
      255
176
     1
290
     0
176
     1
 90
       50
176
     1
 90
       50
176
     1
 90
       50
176
     1
290
     0
176
     1
 90
       50
176
     1
 62
   256
176
     0
 40
1.0
176
     0
 90
        2
176
     1
  1
strokes_ogs.tif
176
     1
290
     0
176
     1
 40
1.0
176
     1
 40
1.0
176
     1
  0
VISUALSTYLE
  5
3C
102
{ACAD_REACTORS
330
29
102
}
330
29
100
AcDbVisualStyle
  2
X-Ray
 70
    25
177
     3
291
     0
 70
    58
 90
        2
176
     1
 90
        2
176
     1
 90
        1
176
     1
 90
        1
176
     1
 40
0.5
176
     1
 40
30.0
176
     1
 62
     7
420
 16777215
176
     1
 90
        1
176
     1
 90
        0
176
     1
 62
     7
176
     1
 62
   257
176
     1
 90
        1
176
     1
 90
        1
176
     1
 40
1.0
176
     1
 90
        8
176
     1
 62
     7
176
     1
 40
1.0
176
     1
 90
        1
176
     1
 90
        6
176
     1
 90
        2
176
     1
 62
     7
176
     1
 90
        3
176
     1
 90
        0
176
     1
 90
        0
176
     1
290
     0
176
     1
 90
       13
176
     1
 40
0.0
176
     1
 90
        0
176
     1
290
     0
176
     1
290
     1
176
     1
290
     1
176
     1
290
     0
176
     1
290
     0
176
     1
290
     0
176
     1
290
     0
176
     1
290
     0
176
     1
290
     0
176
     1
 90
       50
176
     1
 40
0.0
176
     1
 40
1.0
176
     1
 90
        0
176
     1
 62
    18
420
        0
176
     1
 90
       50
176
     1
 90
        3
176
     1
 62
     5
420
      255
176
     1
290
     0
176
     1
 90
       50
176
     1
 90
       50
176
     1
 90
       50
176
     1
290
     0
176
     1
 90
       50
176
     1
 62
   256
176
     0
 40
1.0
176
     0
 90
        2
176
     1
  1
strokes_ogs.tif
176
     1
290
     0
176
     1
 40
1.0
176
     1
 40
1.0
176
     1
  0
DICTIONARYVAR
  5
196
102
{ACAD_REACTORS
330
191
102
}
330
191
100
DictionaryVariables
280
     0
  1
1:1
  0
DICTIONARYVAR
  5
193
102
{ACAD_REACTORS
330
191
102
}
330
191
100
DictionaryVariables
280
     0
  1
STANDARD
  0
DICTIONARYVAR
  5
192
102
{ACAD_REACTORS
330
191
102
}
330
191
100
DictionaryVariables
280
     0
  1
STANDARD
  0
DICTIONARYVAR
  5
194
102
{ACAD_REACTORS
330
191
102
}
330
191
100
DictionaryVariables
280
     0
  1
Imperial24
  0
DICTIONARYVAR
  5
195
102
{ACAD_REACTORS
330
191
102
}
330
191
100
DictionaryVariables
280
     0
  1
Imperial24
  0
DICTIONARY
  5
1A
330
19
100
AcDbDictionary
280
     1
281
     1
  3
BUMPTILE
360
1C
  3
DIFFUSETILE
360
1B
  3
OPACITYTILE
360
1F
  3
REFLECTIONTILE
360
1E
  3
REFRACTIONTILE
360
20
  3
SPECULARTILE
360
1D
  0
DICTIONARY
  5
12
330
11
100
AcDbDictionary
280
     1
281
     1
  3
BUMPTILE
360
14
  3
DIFFUSETILE
360
13
  3
OPACITYTILE
360
17
  3
REFLECTIONTILE
360
16
  3
REFRACTIONTILE
360
18
  3
SPECULARTILE
360
15
  0
DICTIONARY
  5
22
330
21
100
AcDbDictionary
280
     1
281
     1
  3
BUMPTILE
360
24
  3
DIFFUSETILE
360
23
  3
OPACITYTILE
360
27
  3
REFLECTIONTILE
360
26
  3
REFRACTIONTILE
360
28
  3
SPECULARTILE
360
25
  0
DICTIONARY
  5
197
330
65
100
AcDbDictionary
280
     1
281
     1
  3
ACAD_ROUNDTRIP_2008_TABLESTYLE_CELLSTYLEMAP
360
198
  0
XRECORD
  5
1C
102
{ACAD_REACTORS
330
1A
102
}
330
1A
100
AcDbXrecord
280
     1
270
     1
271
     1
  0
XRECORD
  5
1B
102
{ACAD_REACTORS
330
1A
102
}
330
1A
100
AcDbXrecord
280
     1
270
     1
271
     1
  0
XRECORD
  5
1F
102
{ACAD_REACTORS
330
1A
102
}
330
1A
100
AcDbXrecord
280
     1
270
     1
271
     1
  0
XRECORD
  5
1E
102
{ACAD_REACTORS
330
1A
102
}
330
1A
100
AcDbXrecord
280
     1
270
     1
271
     1
  0
XRECORD
  5
20
102
{ACAD_REACTORS
330
1A
102
}
330
1A
100
AcDbXrecord
280
     1
270
     1
271
     1
  0
XRECORD
  5
1D
102
{ACAD_REACTORS
330
1A
102
}
330
1A
100
AcDbXrecord
280
     1
270
     1
271
     1
  0
XRECORD
  5
14
102
{ACAD_REACTORS
330
12
102
}
330
12
100
AcDbXrecord
280
     1
270
     1
271
     1
  0
XRECORD
  5
13
102
{ACAD_REACTORS
330
12
102
}
330
12
100
AcDbXrecord
280
     1
270
     1
271
     1
  0
XRECORD
  5
17
102
{ACAD_REACTORS
330
12
102
}
330
12
100
AcDbXrecord
280
     1
270
     1
271
     1
  0
XRECORD
  5
16
102
{ACAD_REACTORS
330
12
102
}
330
12
100
AcDbXrecord
280
     1
270
     1
271
     1
  0
XRECORD
  5
18
102
{ACAD_REACTORS
330
12
102
}
330
12
100
AcDbXrecord
280
     1
270
     1
271
     1
  0
XRECORD
  5
15
102
{ACAD_REACTORS
330
12
102
}
330
12
100
AcDbXrecord
280
     1
270
     1
271
     1
  0
XRECORD
  5
24
102
{ACAD_REACTORS
330
22
102
}
330
22
100
AcDbXrecord
280
     1
270
     1
271
     1
  0
XRECORD
  5
23
102
{ACAD_REACTORS
330
22
102
}
330
22
100
AcDbXrecord
280
     1
270
     1
271
     1
  0
XRECORD
  5
27
102
{ACAD_REACTORS
330
22
102
}
330
22
100
AcDbXrecord
280
     1
270
     1
271
     1
  0
XRECORD
  5
26
102
{ACAD_REACTORS
330
22
102
}
330
22
100
AcDbXrecord
280
     1
270
     1
271
     1
  0
XRECORD
  5
28
102
{ACAD_REACTORS
330
22
102
}
330
22
100
AcDbXrecord
280
     1
270
     1
271
     1
  0
XRECORD
  5
25
102
{ACAD_REACTORS
330
22
102
}
330
22
100
AcDbXrecord
280
     1
270
     1
271
     1
  0
CELLSTYLEMAP
  5
198
102
{ACAD_REACTORS
330
197
102
}
330
197
100
AcDbCellStyleMap
 90
        3
300
CELLSTYLE
  1
TABLEFORMAT_BEGIN
 90
        5
170
     1
 91
        0
 92
    32768
 62
   257
 93
        1
300
CONTENTFORMAT
  1
CONTENTFORMAT_BEGIN
 90
        0
 91
        0
 92
      512
 93
        0
300

 40
0.0
140
1.0
 94
        5
 62
     0
340
55
144
0.25
309
CONTENTFORMAT_END
171
     0
 94
        0
309
TABLEFORMAT_END
  1
CELLSTYLE_BEGIN
 90
        1
 91
        1
300
_TITLE
309
CELLSTYLE_END
300
CELLSTYLE
  1
TABLEFORMAT_BEGIN
 90
        5
170
     1
 91
        0
 92
        0
 62
   257
 93
        1
300
CONTENTFORMAT
  1
CONTENTFORMAT_BEGIN
 90
        0
 91
        0
 92
      512
 93
        0
300

 40
0.0
140
1.0
 94
        5
 62
     0
340
55
144
0.18
309
CONTENTFORMAT_END
171
     0
 94
        0
309
TABLEFORMAT_END
  1
CELLSTYLE_BEGIN
 90
        2
 91
        1
300
_HEADER
309
CELLSTYLE_END
300
CELLSTYLE
  1
TABLEFORMAT_BEGIN
 90
        5
170
     1
 91
        0
 92
        0
 62
   257
 93
        1
300
CONTENTFORMAT
  1
CONTENTFORMAT_BEGIN
 90
        0
 91
        0
 92
      512
 93
        0
300

 40
0.0
140
1.0
 94
        2
 62
     0
340
55
144
0.18
309
CONTENTFORMAT_END
171
     0
 94
        0
309
TABLEFORMAT_END
  1
CELLSTYLE_BEGIN
 90
        3
 91
        2
300
_DATA
309
CELLSTYLE_END
  0
ENDSEC
  0
EOF
